Song name
# A B C D E F G H I J K L M N O P Q R S T U V W X Y Z

Misc Unsigned Bands - The Brew - Hunters Moon tab

Help us improve GuitareTab! Take a short survey!
-----------------------------------------------------------------------------
			     Hunter's Moon - The Brew
-----------------------------------------------------------------------------
Tabbed by: Nate Weaver
Email: nrweaver@plymouth.edu

Tuning: standard EADGBE

Intro

e|--5p3--3--3-3----3p1-1-0h1---5p3--3--3-3----1--|
B|--3----3--3-3----3---3-------3----3--3-3----3--|
G|--0----0--0-0----2---2-------0----0--0-0----2--|
D|--0----0--0-0----0---0-------0----0--0-0----0--|
A|-----------------------------------------------|
E|-----------------------------------------------|

Melody

e|--------------------------------------------------------|
B|---/8--6--5h6p5-----------------------------------------|
G|-----------------7-5-4--0---/16-14-16-14---16-14-16-12--|
D|--------------------------------------------------------|
A|--------------------------------------------------------|
E|--------------------------------------------------------|

e|--------------------------15----------------------------|
B|------------15--------------------------15--------------|
G|---16-14-16------16-14-16------16-14-16----16-14-16-12--|
D|--------------------------------------------------------|
A|--------------------------------------------------------|
E|--------------------------------------------------------|




| /  slide up
| \  slide down
| h  hammer-on
| p  pull-off
| ~  vibrato
| +  harmonic
| x  Mute note
===============================================================================
Related for The Brew - Hunters Moon tab