Song name
# A B C D E F G H I J K L M N O P Q R S T U V W X Y Z

Misc Unsigned Bands - Angels Of Death - Ill Take Revenge tab

*=harmonic pitch
~=vibrato
p.m=palm mute
h=hammer on
p=pull off
/slide up
\slide down
scrape=pic scrape


Intro


E|------------------------------------------------------------|
B|------------------------------------------------------------|
G|------------------------------------------------------------|
D|--0----1----2----3----4----5----6----0--2--0--2--0--2--0--2-|
A|--0----1----2----3----4----5----6----0--2--0--2--0--2--0--2-|
D|--0----1----2----3----4----5----6----0--2--0--2--0--2--0--2-|

pre-verse

E|-----------------------------------------------------|
B|-----------------------------------------------------|
G|-----------------------------------------------------|
D|--0--------------------------------------------------|
A|--0--(let ring)--0-0-0----0-0-0----0-0-0----0-0-0----|
D|--0--------------0-0-0-3~-0-0-0-5~-0-0-0-7~-0-0-0-9~-|

E|-------------------------------------|
B|-------------------------------------|
G|-------------------------------------|
D|-------------------------------------|
A|--0--0--0-------0--0--0-----0-0-0----|
D|--0--0--0--7~---0--0--0--5~-0-0-0-3~-|

verse

E|--------------------------------------------------------------|
B|--------------------------------------------------------------|
G|--------------------------------------------------------------|
D|--------------------------------------------------------------|
A|--7-----5-----4-----2-----9-----7-----6-----3-----0-----1-----|
D|--9-----7-----6-----2-----9-----7-----6-----3-----0-----1-----|

E|--------------------------------------------------------------|
B|--------------------------------------------------------------|
G|--------------------------------------------------------------|
D|--------------------------------------------------------------|
A|--7-----5-----4-----2-----9-----7-----6-----3-----0-----1-----|
D|--9-----7-----6-----2-----9-----7-----6-----3-----0-----1-----|

E|--------------------------------------------------------------|
B|--------------------------------------------------------------|
G|--------------------------------------------------------------|
D|--------------------------------------------------------------|
A|--7-----5-----4-----2-----9-----7-----6-----3-----0-----1-----|
D|--9-----7-----6-----2-----9-----7-----6-----3-----0-----1-----|

E|--------------------------------------------------------------|
B|--------------------------------------------------------------|
G|--------------------------------------------------------------|
D|--------------------------------------------------------------|
A|--7-----5-----4-----2-----9-----7-----6-----3-----0-----1-----|
D|--9-----7-----6-----2-----9-----7-----6-----3-----0-----1-----|

pre-chours

E|-----------------------------------------------------|
B|-----------------------------------------------------|
G|-----------------------------------------------------|
D|--0--------9--------0--------6--------0--------------|
A|--0--------9--------0--------6--------0--------4-----|
D|--0--------9--------0--------6--------0--------6-----|

E|-----------------------------------------------------|
B|-----------------------------------------------------|
G|-----------------------------------------------------|
D|--0--------9--------0--------6--------0--------------|
A|--0--------9--------0--------6--------0--------4-----|
D|--0--------9--------0--------6--------0--------6-----|

E|--x-x-x-x-x-x-x------------------|
B|--x-x-x-x-x-x-x------------------|
G|--x-x-x-x-x-x-x------------------|
D|--x-x-x-x-x-x-x--3-5-3-5-3-5-3-5-|
A|--x-x-x-x-x-x-x--3-5-3-5-3-5-3-5-|
D|--x-x-x-x-x-x-x--3-5-3-5-3-5-3-5-|

E|--x-x-x-x-x-x-x------------------|
B|--x-x-x-x-x-x-x------------------|
G|--x-x-x-x-x-x-x------------------|
D|--x-x-x-x-x-x-x--3-5-3-5-3-5-3-5-|
A|--x-x-x-x-x-x-x--3-5-3-5-3-5-3-5-|
D|--x-x-x-x-x-x-x--3-5-3-5-3-5-3-5-|

E|-----------------------------------------------------------------|
B|-----------------------------------------------------------------|
G|-----------------------------------------------------------------|
D|--3--------4--------5--------6--------7--------8--------9--------|
A|--3--------4--------5--------6--------7--------8--------9--------|
D|--3--------4--------5--------6--------7--------8--------9--------|

E|-----------------------------------------------------------------|
B|-----------------------------------------------------------------|
G|-----------------------------------------------------------------|
D|--3--------4--------5--------6--------7--------8--------9--------|
A|--3--------4--------5--------6--------7--------8--------9--------|
D|--3--------4--------5--------6--------7--------8--------9--------|


E|--x-x-x-x-x-x-x------------------|
B|--x-x-x-x-x-x-x------------------|
G|--x-x-x-x-x-x-x------------------|
D|--x-x-x-x-x-x-x--3-5-3-5-3-5-3-5-|
A|--x-x-x-x-x-x-x--3-5-3-5-3-5-3-5-|
D|--x-x-x-x-x-x-x--3-5-3-5-3-5-3-5-|
Tap to rate this tab
 
# A B C D E F G H I J K L M N O P Q R S T U V W X Y Z