Song name
# A B C D E F G H I J K L M N O P Q R S T U V W X Y Z

Misc Unsigned Bands - Last Of The Believers - Throwing Matches tab

---------------------------------------------------------------
Last Of The Believers - Throwing Matches
---------------------------------------------------------------
Tabbed by: Malk  (i refuse to)



Intro 
E|------------------------------------|
B|------------------------------------|
G|------------------------------------|
D|555555555555555---------------------|
A|333333333333333---6666666666666666--|
E|------------------4444444444444444--|

E|--------------------------------------------------------------------|
B|--------------------------------------------------------------------|
G|--------------------------------------------------------------------|
D|555555555555555---8888888888888888---88-888-88-88-------------------|
A|333333333333333---6666666666666666---66-666-66-66-88888---6~--------|
E|--------------------------------------------------66666---4~--------|

Verse:
E|-----------------------|-------------------------|
B|-----------------------|-------------------------|
G|-----------------------|-------------------------|
D|--5-5---8-8------------|--5-5---8-8--------------|
A|--3-3---6-6---8-8---6-6|--3-3---6-6---6-6---8-8--|
E|--------------6-6---4-4|--------------4-4---6-6--|

E|-----------------------|-------------------------|
B|-----------------------|-------------------pick--|
G|-----------------------|------------------stick--|
D|--5-5---8-8------------|--5-5---8-8--------------|
A|--3-3---6-6---8-8---6-6|--3-3---6-6---6~---------|
E|--------------6-6---4-4|--------------4~---------|


Chorus:
E|--------------------------------------------------------------------|
B|--------------------------------------------------------------------|
G|--------------------------------------------------------------------|
D|555555555555555---8888888888888888---88-888-88-88-------------------|
A|333333333333333---6666666666666666---66-666-66-66-88888---6~--------|
E|--------------------------------------------------66666---4~--------|

Verse:
E|-----------------------|-------------------------|
B|-----------------------|-------------------------|
G|-----------------------|-------------------------|
D|--5-5---8-8------------|--5-5---8-8--------------|
A|--3-3---6-6---8-8---6-6|--3-3---6-6---6-6---8-8--|
E|--------------6-6---4-4|--------------4-4---6-6--|

E|-----------------------|-------------------------|
B|-----------------------|-------------------pick--|
G|-----------------------|------------------stick--|
D|--5-5---8-8------------|--5-5---8-8--------------|
A|--3-3---6-6---8-8---6-6|--3-3---6-6---6~---------|
E|--------------6-6---4-4|--------------4~---------|

Bridge 1:
E|--------------------------------|
B|--------------------------------|
G|--------4~------4~------4 ~ ----|
D|------5-------3-----------------|(x2)
A|----3-------0---------5---------|
E|--------------------3-----------|

Bridge 2:
E|-------------------------------------------------------------|
B|-------------------------------------------------------------|
G|-------------------------------------------------------------|
D|555-5-5-555--------------------888-8-8-888-------------------|
A|333-3-3-333----666-6-6-666-----666-6-6-666-----888-8-8-888---|
E|---------------444-4-4-444---------------------666-6-6-666---|

E|---------------------------------------------------------|
B|---------------------------------------------------------|
G|---------------------------------------------------------|
D|555-5-5-555--------------------888-8-8-888---------------|
A|333-3-3-333----666-6-6-666-----666-6-6-666-----8~-pick---|
E|---------------444-4-4-444---------------------6~-stick--|

Chorus:
E|--------------------------------------------------------------------|
B|--------------------------------------------------------------------|
G|--------------------------------------------------------------------|
D|555555555555555---8888888888888888---88-888-88-88-------------5~~~~-|
A|333333333333333---6666666666666666---66-666-66-66-88888---6~--3~~~~-|
E|--------------------------------------------------66666---4~--------|
Tap to rate this tab
 
# A B C D E F G H I J K L M N O P Q R S T U V W X Y Z