Song name
# A B C D E F G H I J K L M N O P Q R S T U V W X Y Z

Misc Unsigned Bands - The Fat Albert Show - Not As Fat As Albert tab

D--0------0---|
B--6------3---|
G--0------0---|    <- - - - Verse
D--8------5---|
G--0------0---|
D--x------x---|


--x--x------x--x------x--x------x--x---|
--x--x------3--3------3--1------0--1---|
--4--4-Riff-2--0-Riff-2--0-Riff-2--2---|    <- - - - Chorus
--4--2------0--0------0--0------3--3---|
--2--2------3--3------2--2------x--x---|
--0--0------x--x------x--x------3--3---|

--0-------0-----------------0-------0---------------|
--6-------3-----------------6-------3---------------|
--0-Slide-0-Slide back up---0-Slide-0---------------|   <- - - - sick end bit where odge
--8-------5-then down again-8-------5---------------|            goes for it.
--0-------0-----------------8-------5---------------|
--x-------x-----------------x-------x---------------|

i love you honey pie.
Tap to rate this tab
 
# A B C D E F G H I J K L M N O P Q R S T U V W X Y Z