Song name
# A B C D E F G H I J K L M N O P Q R S T U V W X Y Z

Misc Unsigned Bands - Johan Soderqvist - Let The Right One In tab

-------------------------------------------------------------------------------
                        LET THE RIGHT ONE IN - Johan Soderqvist
-------------------------------------------------------------------------------
Tabbed by: copil_valah
Email: copil_valah@yahoo.com


title track from the soundtrack of "Let the right one in"
(Låt den rätte komma in)

Tuning: EADGBe (normal)

e|--------------------------------------7---9h10--9-9~--7-9------12h14-14-12-|
B|-10p9h10--9-7---9-10---7----7-9----10---------------------10---------------|
G|-------------------------9-------------9-----------------------------------|
D|---------------------------------------------------------------------------|
A|---------------------------------------------------------------------------|
E|---------------------------------------------------------------------------|

e|--10-12--------10--9-------------------------------------------------------|
B|--------10------------7--9--10--9h10--9---7-9------------------------------|
G|---------------------------------------------------------------------------|
D|---------------------------------------------------------------------------|
A|---------------------------------------------------------------------------|
E|---------------------------------------------------------------------------|

e|--------------------------------------7---9h10--9-9~--7-9------12h14-14-12-|
B|----9h10--9-7---9-10---7----7-9----10---------------------10---------------|
G|-6------------------------9-------------9----------------------------------|
D|---------------------------------------------------------------------------|
A|---------------------------------------------------------------------------|
E|---------------------------------------------------------------------------|

e|--10-12---12-7----10--9----------------------------------------------------|
B|---------------10--------7--9--10--9h10--9---7-9---------------------------|
G|---------------------------------------------------------------------------|
D|---------------------------------------------------------------------------|
A|---------------------------------------------------------------------------|
E|---------------------------------------------------------------------------|

e|----10h12--10-9h10--9-7h9--p7------12h14--13-14-16---13--10-9--------------|
B|--9-----------------------------10-----------------------------------------|
G|---------------------------------------------------------------------------|
D|---------------------------------------------------------------------------|
A|---------------------------------------------------------------------------|
E|---------------------------------------------------------------------------|

e|--12h14---9--7--10--9---------------------------------------9--------------|
B|-----------------------10------7--9--10--9h10--9--7-------9----------------|
G|-------------------------------------------------------10------------------|
D|---------------------------------------------------------------------------|
A|---------------------------------------------------------------------------|
E|---------------------------------------------------------------------------|


| /  slide up
| \  slide down
| h  hammer-on
| p  pull-off
| ~  vibrato
| +  harmonic
| x  Mute note
===============================================================================
Tap to rate this tab
# A B C D E F G H I J K L M N O P Q R S T U V W X Y Z