Song name
# A B C D E F G H I J K L M N O P Q R S T U V W X Y Z

Misc Unsigned Bands - Black N Blues - I Dont Care Anymore tab

Band: Black N Blues
Song: We Don't Care At All
CD:   Volume One
Year: 2005
Tune: D#

*Note this is the majority of the tab, minus
the main solo. The chorus plays as I have it but
after you play that part, you play the verse part again.

For those who dont know, this band features Virus of Dope
and his brother Dan from Bully as well as Jerry Gaskill
from King's X and Hector Grazian from 40 Below Summer*

  Intro lead:
D#---------------------------------------------------|
A#------------9--12--7-------------------------------|
F#---/-9--11------------7h9-10--10bp9--9--6-5h6------|
C#-----------------------------------------------6---|
G#---------------------------------------------------|
D#---------------------------------------------------|

D#---------------------------------------------------|
A#------------9--12--7-------------------------------|
F#---/-9--11------------7h9-10--10bp9--9--6-5h6------|
C#-----------------------------------------------6---|
G#---------------------------------------------------|
D#---------------------------------------------------|

   Verse:
D#-------------------------------------------|
A#-----5--------------------5----------------|
F#---6-6----4--4--4-4-----6-6----4--4--4-4---|
C#---6-6----4--4--4-4-----6-6----4--4--4-4---|
G#---4------2--2--2-2-----4------2--2--2-2---|
D#-------------------------------------------|

   Chorus:
D#----------------------------------------|
A#----------------------------------------|
F#----------------------------------------|
C#---7-7--7---7-7--7----9-9--9---9-9--9---|
G#---7-7--7---7-7--7----9-9--9---9-9--9---|
D#---5-5--5---5-5--5----7-7--7---7-7--7---|


   Intro lead (again):
D#---------------------------------------------------|
A#------------9--12--7-------------------------------|
F#---/-9--11------------7h9-10--10bp9--9--6-5h6------|
C#-----------------------------------------------6---|
G#---------------------------------------------------|
D#---------------------------------------------------|

   Verse:
D#-------------------------------------------|
A#-----5--------------------5----------------|
F#---6-6----4--4--4-4-----6-6----4--4--4-4---|
C#---6-6----4--4--4-4-----6-6----4--4--4-4---|
G#---4------2--2--2-2-----4------2--2--2-2---|
D#-------------------------------------------|

   Chorus:
D#----------------------------------------|
A#----------------------------------------|
F#----------------------------------------|
C#---7-7--7---7-7--7----9-9--9---9-9--9---|
G#---7-7--7---7-7--7----9-9--9---9-9--9---|
D#---5-5--5---5-5--5----7-7--7---7-7--7---|


   Solo:
D#-----------------------------|
A#------------9--12--12br-12---|
F#---/-9--11-------------------|
C#-----------------------------|
G#-----------------------------|
D#-----------------------------|

   Verse:
D#-------------------------------------------|
A#-----5--------------------5----------------|
F#---6-6----4--4--4-4-----6-6----4--4--4-4---|
C#---6-6----4--4--4-4-----6-6----4--4--4-4---|
G#---4------2--2--2-2-----4------2--2--2-2---|
D#-------------------------------------------|

   Chorus:
D#----------------------------------------|
A#----------------------------------------|
F#----------------------------------------|
C#---7-7--7---7-7--7----9-9--9---9-9--9---|
G#---7-7--7---7-7--7----9-9--9---9-9--9---|
D#---5-5--5---5-5--5----7-7--7---7-7--7---|


   Outro Lead:
D#---------------------------------------------------|
A#------------9--12--7-------------------------------|
F#---/-9--11------------7h9-10--10bp9--9--6-5h6------|
C#-----------------------------------------------6---|
G#---------------------------------------------------|
D#---------------------------------------------------|

D#----------------------|
A#---12-14-16b-16b-16---|
F#----------------------|
C#----------------------|
G#----------------------|
D#----------------------|

D#----------------------------------------------------------|
A#------------9--12--12br-12--------------------------------|
F#---/-9--11-------------------7h9-10--10bp9--9--6-5h6------|
C#------------------------------------------------------6---|
G#----------------------------------------------------------|
D#----------------------------------------------------------|
Tap to rate this tab
 
# A B C D E F G H I J K L M N O P Q R S T U V W X Y Z