Song name
# A B C D E F G H I J K L M N O P Q R S T U V W X Y Z

Misc Unsigned Bands - Aota - Gorilla Science tab

-------------------------------------------------------------------------------
			     GORILLA SCIENCE - AOTA
-------------------------------------------------------------------------------
Tabbed by: Person909
Email: gemma.ramsay@hotmail.com

Tuning:
 
1. INTRO/PRE VERSE
e|------0---------0-------2-------0--|
B|---1--------1---------3-------1----|
G|-------------------0---------------|
D|-----------------------------------|
A|-0-------3-----------------0-------|
E|-----------------------------------|

2. VERSE
e|--------0------------0----------2------------0----|
B|------1--1---------1--1-------3--3---------1---1--|
G|----2-----2------0-----0----2-----2------2--------|
D|---------------------------0----------------------|
A|--0-------------3---------------------0-----------|
E|--------------------------------------------------|

3. PRE CHORUS
e|-0----0---0---|
B|-1----1---0---|
G|-2----0---1---|
D|-3----2---2---|
A|-0----3---2---|
E|-X----X---0---|

4. CHORUS

Am, C, D, Am
Am, C, D, Am

Those are just the different sections of the song and this is the order in which the song goes. 

1. INTRO
2. VERSE X2
3. PRE CHORUS
4. CHORUS

1. PRE VERSE
2. VERSE X2
3. PRE CHORUS
4. CHORUS

1. PRE VERSE
2. VERSE X2
3. PRE CHORUS
4. CHORUS
Tap to rate this tab
# A B C D E F G H I J K L M N O P Q R S T U V W X Y Z