Song name
# A B C D E F G H I J K L M N O P Q R S T U V W X Y Z

Misc Unsigned Bands - Varnadore - Hopeless Case tab

Tuning: Standard                          
Capo: 6th fret
Tabbed By: Ramzi Bahu.  

So this is Varnadore's song called Hopeless Case 
No one has tabbed this song yet so I figured I would 
It's as close as I have got but I'm open for corrections
give me your opinions, Thanks. 



                           Verse
 E|-------------------------------------------------------------------------|
 B|----1--1-----1--1--------------------------------------------------------|
 G|----4--4-----2--2--------4-4----4--4-------------------------------------|
 D|-2-----------------------7-7----5--5-------------------------------------| 
 A|-0-----------------------------------------------------------------------|
 E|-----------2---------3--------3------------------------------------------|

         Pre-Chorus  "You've been hurt by the world.."
 E|--------------------------------------------------------|
 B|---1-1----1-1----------------------3-3------1-1---------|
 G|---4-4----2-2------4-4----4-4------0-0------2-2---------|
 D|-2-----------------5-5----7-7---------------------------| 
 A|-0-------------------------------3----------------------|
 E|---------2-------3------2-----------------2-------------|

 
                            Chorus
  "So darling don't you fear.."  "So please don't run away"
 E|----------------------------|---------------------------|
 B|---3-3-----3-3------3-3-----|-----3-3---3--3------------|
 G|---0-0-----0-0------0-0-----|-----0-0---0--0------------|
 D|----------------------------|---------------------------| 
 A|-3--------------------------|---3-----------------------|
 E|---------3--------2---------|-----------3--2------------|

                          Bridge  X2 
 E|-------------------------------------------------------------------------|
 B|----1--1-----1--1--------------------------3--3--------------------------|
 G|----4--4-----2--2------4--4------4--4------0--0--------------------------|
 D|-2---------------------7--7------5--5------------------------------------| 
 A|-0-----------------------------------------------------------------------|
 E|-----------2--------3---------3----------2-------------------------------|

                     "Tell me what's the use in life"
 E|-------------------------------------------------------------------------|
 B|---1--1-------1--1---------------3--3-----3--3------3--3-----------------|
 G|---4--4-------2--2-------4-4-----0--0-----0--0------2--2-----------------|
 D|-2-----------------------7-7---------------------------------------------| 
 A|-0-----------------------------3--------2--------------------------------|
 E|-----------2----------2---------------------------2----------------------|

                           x2
 E|--------------------------------------------------------|
 B|----3--3------3--3-------3--3---------------------------|
 G|----0--0------0--0-------0--0---------------------------|
 D|--------------------------------------------------------| 
 A|-3---------2--------------------------------------------|
 E|----------------------2---------------------------------|
Tap to rate this tab
 
# A B C D E F G H I J K L M N O P Q R S T U V W X Y Z