Song name
# A B C D E F G H I J K L M N O P Q R S T U V W X Y Z

Misc Unsigned Bands - Cejay Wolbers - Silent Sicide tab

----------------------------------------------------------------------------
			     Silent Suicide -FUXXX
----------------------------------------------------------------------------
Tabbed by:Cejay Wolbers-rhythm and lead
Email:

Tuning:down full step all strings
(intro)-clean


e|-----3--3--3-------3--3--3-------3--3--3-----3--3--3-----------------------|
B|-------3--3----------3--3----------3--3--------3--3---------0--------------|
G|---0-------------0-------------0------------0-----------5-----5------------|
D|------------------------------------------2---------------5-----5----------|
A|---------------2-------------3-------------------------3-------------------|
E|-3-------------------------------------------------------------------------|
(intro cntd.)
e|----------------------------------------------|
B|-------0--------------------------------------|                                             ^
G|---5-------5-|                               -|
D|-----5---5---|x2including the one from above -|
A|-3--------------------------------------------|
E|----------------------------------------------|
(chorus)
e|--------------------------------------------------------------------------|
B|--------------------------------------------------------------------------|
G|--------3-----------------------------------------------------------------|
D|--0-3-5---5-3---9----9---7---5---5---7---9---------3----------------------|
A|----------------7--xx--xx--xx--xx--xx--xx----0-3-5---5-3------------------|
E|--------------------------------------------------------------------------|
(verses)second time thorugh pikk slide
e|------------------------------------------------------------------------|
B|-------------------------------------------------------------+77--------|
G|---5---9---7----5---9---5----5---9---7----5---7---5--+77-+55-+77--------|
D|---3---7---5----3---7---3----3---7---5----3---5---3--+77-+55------------|
A|-xx-xx-xx-xx-xx-xx-xx-xx-xx-xx-xx-xx-xx-xx-xx-xx-xx-xx------------------|
E|------------------------------------------------------------------------|
(solo)after chorus
e|-12-12-15brbr---------------------------------8h10h12-10-8--13p12p8x6-|
B|-------------15-----------------------8h10h12-------------------------|
G|-------------------------------7h9h10---------------------------------|
D|------------------------7h9h10----------------------------------------|
A|-----------------7h9h10-----------------------------------------------|
E|----------------------------------------------------------------------|

e|-13p10p8-10\0---12-19-17--12h19x4--12h19p17h19p17x2--(all of it 5 times)---|
B|------------------------(-------outro only--------)------------------------|
G|---------------------------------------------------------------------------|
D|---------------------------------------------------------------------------|
A|---------------------------------------------------------------------------|
E|---------------------------------------------------------------------------|
(outro cntd.)
e|--12p10p8-------------------------------------------------------|
B|----------12p10p8-----------------------------------------------|
G|------------------10p9p7----------------------------------------|
D|-------------------------10p9p7----------------------------7\0--|
A|--------------------------------10p9p7--------------3------7\0--|
E|----------------------------------------***---0-3-5---5-3--5\0--|

|**  Pikk Slide
| /  slide up
| \  slide down
| h  hammer-on
| p  pull-off
| ~  vibrato
| +  harmonic
| x  Mute note
============================================================================
Tap to rate this tab
# A B C D E F G H I J K L M N O P Q R S T U V W X Y Z