Song name
# A B C D E F G H I J K L M N O P Q R S T U V W X Y Z

Misc Unsigned Bands - High Voltage21 - Misery tab

Intro (both guitars) 
d-------------------------------------------------------|
a-------------------------------------------------------|
f-6--9--11---5--55-5-6-9--7-----------------------------|
c-6--9--11---5--55-5-6-9--7--------pick slide-----------|
g-4--7--9----3--33-3-4-7--5-----------------------------|
c-------------------------------------------------------|


verse(lead)
d-------------------------------------------------------|
a-------------------------------------------------------|
f-9--11--12--7-77-7-9-11--7-------------7---------------|
c-9--11--12--7-77-7-9-11--7---------9-9-7-9-------------|
g-7--9---10--5-55-5-7-9---5---------9-9-5-9-------------|
c-----------------------------------7-7---7-------------|(x3)


verse(second)
d-----555555555567/10-----------------------------------|
a--------------------555555555567/10------------------8-|
f-----------------------------------555555-4----------8-|
c-------------------------------------------33221100--8-|
g-------------------------------------------------------|
c-------------------------------------------------------|(x3)



(bridge both guitars)
d-------------------------------------------------------|
a-------------------------------------------------------|
f--7~---77/10--------------6~---88/9--------------------|
c--7~---77/10--9-----------4~---66/7---7----------------|
g--5~---55/8---9-----------4~---66/7---7----------------|
c--------------7-----------------------5----------------|



(chorus)
d-------------------------------------------------------|
a-------------------------------------------------------|
f--77777-77/1212121212---6----12------------------------|
c--77777-77/1212121212---6--7-12-7--5--3--22------------|
g--77777-77/1212121212---6--7-10-5--5--3--22------------|
c--77777-77/1212121212---6--5----5--3--3--00------------|(x2)




verse2(lead)
d-------------------------------------------------------|
a-------------------------------------------------------|
f-9--11--12--7-77-7-9-11--7--------------7--------------|
c-9--11--12--7-77-7-9-11--7---------9-99-7-9------------|
g-7--9---10--5-55-5-7-9---5---------9-99-5-9------------|
c-----------------------------------7-77---7------------|(x3)


verse2(second)
d-----555555555567/10-----------------------------------|
a--------------------555555555567/10------------------8-|
f-----------------------------------555555-4----------8-|
c-------------------------------------------33221100--8-|
g-------------------------------------------------------|
c-------------------------------------------------------|(x3)



(bridge both guitars)
d-------------------------------------------------------|
a-------------------------------------------------------|
f--7~---77/10--------------6~---88/9--------------------|
c--7~---77/10--9-----------4~---66/7---7----------------|
g--5~---55/8---9-----------4~---66/7---7----------------|
c--------------7-----------------------5----------------|




(chorus)both guitars
d-------------------------------------------------------|
a-------------------------------------------------------|
f--77777-77/1212121212---6----12------------------------|
c--77777-77/1212121212---6--7-12-7--5--3--22------------|
g--77777-77/1212121212---6--7-10-5--5--3--22------------|
c--77777-77/1212121212---6--5----5--3--3--00------------|(x2)




verse3(lead)
d-------------------------------------------------------|
a-------------------------------------------------------|
f-9--11--12--7-77-7-9-11--7-------------7---------------|
c-9--11--12--7-77-7-9-11--7---------9-9-7-9-------------|
g-7--9---10--5-55-5-7-9---5---------9-9-5-9-------------|
c-----------------------------------7-7---7-------------|(x3)


verse3(second)
d-----555555555567/10-----------------------------------|
a--------------------555555555567/10------------------8-|
f-----------------------------------555555-4----------8-|
c-------------------------------------------33221100--8-|
g-------------------------------------------------------|
c-------------------------------------------------------|(x3)



(bridge both guitars)
d-------------------------------------------------------|
a-------------------------------------------------------|
f--7~---77/10--------------6~---88/9--------------------|
c--7~---77/10--9-----------4~---66/7---7----------------|
g--5~---55/8---9-----------4~---66/7---7----------------|
c--------------7-----------------------5----------------|



(chorus)
d-------------------------------------------------------|
a-------------------------------------------------------|
f--77777-77/1212121212---6----12------------------------|
c--77777-77/1212121212---6--7-12-7--5--3--22------------|
g--77777-77/1212121212---6--7-10-5--5--3--22------------|
c--77777-77/1212121212---6--5----5--3--3--00------------|(x2)



solo

d----------------------------------------------15p13t20-|
a-------------------------------------------------------|
f-------------------------------------------------------|
c---77------77------7-----------------------------------|
g---779p8p7-779p8p7-7-------------5p3h5p3h5p3h5---------|
c---55------55------5--5p3h5p3h5p3----------------------|

d15h17h19p17p15h16h17p16p14-----------------------------|
a--------------------------8-8-9--9--10--10--12--13h14--|
f---------------------------9-9-10-10--11--11--13-------|
g-------------------------------------------------------|
g-------------------------------------------------------|
c-------------------------------------------------------|



d-----17p16p15------------------------------------------|
a-------------17p16p15----------------------------------|
f---------------------17p16p15--------------------------|
c-----------------------------15h16h17------------------|
g------------------------------------15h16h17-----------|
c--------------------------------------------17h18h20---|
end solo



(bridge both guitars)
d-------------------------------------------------------|
a-------------------------------------------------------|
f--7~---77/10--------------6~---88/9--------------------|
c--7~---77/10--9-----------4~---66/7---7----------------|
g--5~---55/8---9-----------4~---66/7---7----------------|
c--------------7-----------------------5----------------|



(chorus)
d-------------------------------------------------------|
a-------------------------------------------------------|
f--77777-77/1212121212---6----12------------------------|
c--77777-77/1212121212---6--7-12-7--5--3--22------------|
g--77777-77/1212121212---6--7-10-5--5--3--22------------|
c--77777-77/1212121212---6--5----5--3--3--00------------|(x2)






outro
d-------------------------------------------------------|
a-------------------------------------------------------|
f-6--9--11---5--55-5-6-9--7-------77--77--77~-----------|
c-6--9--11---5--55-5-6-9--7-------77--77--77~-----------|
g-4--7--9----3--33-3-4-7--5-------55--55--55~-----------|
c-------------------------------------------------------|

Tap to rate this tab
# A B C D E F G H I J K L M N O P Q R S T U V W X Y Z