Song name
# A B C D E F G H I J K L M N O P Q R S T U V W X Y Z

Misc Unsigned Bands - Guerrilla - The Wolverine tab



Standard Tuning
Tabbed by Lance Brooks
Band: Guerrilla
Song:
Difficulty: Hard


  Intro Riff
e|---------------------------------------------------------------------------------|
B|---------------------------------------------------------------------------------|
G|-----------------------------3~--------------------------------------------------|
D|--4-3-2-3-4-3--4-3-2-3-1~------4-3-2-3-4-3--4-3-2-3------------------------Play--| 2x
A|--2-1-0-1-2-1--2-1-0-1----------2-1-0-1-2-1--2-1-0-1----5-4-5-4------------------|
E|---------------------------------------------------------------------3-2-3-2-----|
                                   Second Riff While Other Guitar is Still Playing Intro Riff
e|---------------------------------------------------------------------------|
B|---------------------------------------------------------------------------|
G|---------------------------------------------------------------------------|
D|----5-5-6-3-3-4------5-5-6-3-3-4------5-5-6-3-3-4--------5-5-4-3-2---------|Play 2x
A|----3-3-4-1-1-2------3-3-4-1-1-2------3-3-4-1-1-2--------3-3-2-1-0---------|
E|--0-------------------0--------------------0--------------------0----------|

e|----------------------------------|
B|----------------------------------|
G|----------------------------------| Right Before Main Riff (Both Guitars)
D|----------------------------------|
A|--7--5--6--4----------------------|
E|--5--3--4--2-^^^^^~~--------------|


                                   Main Riff
e|---------------------------------------------------------------------------------|
B|---------------------------------------------------------------------------------|
G|----------------------------------------------------------------------------4~---|
D|--4------4----5------4-------4---3~----4------4----5------4------4--2~-----Play--| 2x
A|--2-0-0-2-0-3-0-0-2-0-0-2-0-1~--2-0-0-2-0-3-0-0-2-0-0-2-0------------------------|
E|---------------------------------------------------------------------------------|
                                  Verse Riff
e|---------------------------------------------------------------------------|
B|---------------------------------------------------------------------------|
G|---------------------------------------------------------------------------|2~
D|--2-0-0-2-0-3-0-0-2-0-0-2-0-1~--2-0-0-2-0-3-0-0-2-0-0-2-0------------------|Play2x
A|---------------------------------------------------------------------------|
E|---------------------------------------------------------------------------|

Chorus Riff
e|---------------------------------------------------------------------------|
B|---------------------------------------------------------------------------|
G|---------------------------------------------------------------------------|
D|----5-5-6-3-3-4------5-5-6-3-3-4------5-5-6-3-3-4--------5-5-4-3-2---------|
A|----3-3-4-1-1-2------3-3-4-1-1-2------3-3-4-1-1-2--------3-3-2-1-0---------|
E|--0-------------------0--------------------0--------------------0----------|

e|---------------------------------------------------------------------------|
B|---------------------------------------------------------------------------|
G|---------------------------------------------------------------------------|
D|--5--5-6-5-4-----5--5-6-5-4-----5--5-6-5-4-----7-8-7-6-5-------------------|
A|--3--3-4-3-2-----3--3-4-3-2-----3--3-4-3-2-----5-6-5-4-3-------------------|
E|------------------0---------------0------------------0---------------------|
                                        Directly After Chorus (Really Fast)
e|---------------------------------------------------------------------------|
B|---------------------------------------------------------------------------|
G|---------------------------------------------------------------------------|
D|---------------------------------------------------------------------------|
A|--3-2-0-3-2-0-3-2-1-2bbb---------------------------------------------------|
E|---------------------------------------------------------------------------|
                                        2nd Verse (Play Verse Riff)
                                        Play Chorus Riff in 2nd Chorus


   After Second Chorus
e|--------------------------------|
B|--------------------------------|
G|--------------------------------|
D|--5~8~7~6~5~8~7~6~5~ Play 2x (Second Time sustain last note for 5 seconds)
A|--3~6~5~4~3~6~5~4~3~
E|------------------------------

                                  First Solo
e|---------------------------------------------------------------------------|
B|---------------------------------------------------------------------------|
G|-----------14-----------14-----------14-------------14---------------------|
D|--12--15-----12--15-----12--15-------12--15--------12--15\-----------------|
A|---------------------------------------------------------------------------|
E|---------------------------------------------------------------------------|

e|---------------------------------------------------------------------------|
B|---------------------------------------------------------------------------|
G|---------------------------------------------------------------------------|
D|------------14------------14------------14------------14-------------------|
A|--12--15-------12--15------12--15-------12--15-------1215\----------------|
E|---------------------------------------------------------------------------|

e|--8-0~-7-0~-5-0~-----5-0~7-0~-8~-----8-0~-7-0~-5-0~----5-0~-3-0~--3-5^^^^^---|
B|-----------------------------------------------------------------------------|
G|-----------------------------------------------------------------------------|
D|-----------------------------------------------------------------------------|
A|-----------------------------------------------------------------------------|
E|-----------------------------------------------------------------------------|


e|---------------------------------------------------------------|
B|---------------------------------------------------------------|
G|---------------------------------------------------------------|
D|-------7------7-8------7-----7-8------7----7-8------5-----5-8--|Play 2x before Second Solo
A|-------5------5-6------5-----5-6------5----5-6------3-----3-6--|
E|--0-0---000----0000-000-----0000-000----0000-000---------------|

                             Second Solo
e|--12p10--12p10--12p10--12p10--13p10--13p10--13p10--13p10--11p9--11p9--11p9--11p9----|
B|------------------------------------------------------------------------------------|
G|------------------------------------------------------------------------------------|
D|------------------------------------------------------------------------------------|
A|------------------------------------------------------------------------------------|
E|------------------------------------------------------------------------------------|

e|--12p9--12p9--12p9--12p9--12^^^^^^----9-8-7----------------------------------------|
B|------------------------------------------------------------9-8-7----------8-------|5bbb
G|------------------------------------------------------------------9-8-7------------|
D|---------------------------------------------------------------------------9b---9--|
A|-----------------------------------------------------------------------------------|
E|-----------------------------------------------------------------------------------|
                            One Guitarist
e|-----------------------------------------------------------------------------------|
B|-----------------------------------------------------------------------------------|
G|-----------------------------3~----------------------------------------------------|
D|--4-3-2-3-4-3--4-3-2-3-1~------4-3-2-3-4-3--4-3-2-3--------------------------------|
A|--2-1-0-1-2-1--2-1-0-1----------2-1-0-1-2-1--2-1-0-1----5-4-5-4-2~~~~--------------|
E|---------------------------------------------------------------------3-2-3-2-0~~~~-|

^   Whammy
~   Sustain
b   Bend
/   Slide Up
\   Slide Down
p  Pull Off
h  Hammer On
Tap to rate this tab
# A B C D E F G H I J K L M N O P Q R S T U V W X Y Z