Song name
# A B C D E F G H I J K L M N O P Q R S T U V W X Y Z

Misc Unsigned Bands - Monrow - Spiral Eyes tab

-------------------------------------------------------------------------------
                     Spiral Eyes - MONROW
-------------------------------------------------------------------------------
Tabbed by: Erle Vaughan
Email:erle_vaughan@yahoo.com

Tuning: f#C#AEBF#(STD TUNING WITH A CAPO ON THE 2ND FRED)

TABBING IS IRRELEVENT TO CAPO

INTRO
  GUITAR 1

  D G+9 G D X2

Chord Chart

Track 1 (Capo 2)
     D    Gadd9 G       
          
e||--2----3-----3----||
B||--3----3-----3----||
G||--2----2-----0----||
D||--0----0-----0----||
A||-------2-----2----||
E||-------------3----||

  GUITAR 2/LEAD
   D     Gadd9 G      D    D        Gadd9 G       D
e|-7--9-7-----7-----------|-7777-9-7------7------------|
B|-------9--9---9-7---7-9-|----------9--9---9-7----7-9-|
G|-----------------9------|---------------------9------|
D|------------------------|----------------------------|
A|------------------------|----------------------------|
E|------------------------|----------------------------|

verse 1
 D          G+9
 TRY MAKE EXCUSE FOR HIM
        G                         D
 AFTER WHILE YOU'LL BE WASTIN YOUR TIME
  D            G+9               
 HALF BOTTLE A'GIN AND A CHEEKY 
  G                         D
 GRIN HE'LL EITHER MAKE YOU CRY OR SMILE
 D              G+9            
 FIVE DAYS IN A ROW COULD DO FOR 
 G               D
 MORE WITH NO CONVINCING AT ALL
 D                G+9
 HE MAKEs STIRRY* REMARKS AT YOUR
   G                       D
 EXPENCE HOPE YOU DON'T TAKE OFFENCE
 
CHORUS
GUITAR 2 PLAYS RIFF GUITAR 1 CARRIES THE TUNE
   C                D                  
e|--------------------|
B|-----5--------5-----|
G|-4-6---6--4-6---6-4-|
D|--------------------|
A|--------------------|
E|--------------------|
 C
 COZ YOU NEVER KNOW

 COZ YOU NEVER KNOW 
              D
 COZ YOU NEVER KNOWOOWOW
  C
 COZ YOU NEVER KNOW

 COZ YOU NEVER KNOW 
           G
 WHAT GOES ON IN HIS HEAD
 G    X                 D
      AND NEITHER WILL HE

 (ROLLS FROM THE LATER D INTO THE INTRO RIFF)

   GUITAR 2/LEAD
   D     G+9    G      D    D        G+9    G       D
e|-7--9-7-----7-----------|-7----9-7------7------------|
B|-------9--9---9-7---7-9-|----------9--9---9-7----7-9-|
G|-----------------9------|---------------------9------|
D|------------------------|----------------------------|
A|------------------------|----------------------------|
E|------------------------|----------------------------|
  OOO     OOO   OOO    OOO OOO       OOO    OOO     OOO
                           NIETHER WILL HE EE YAY YA YE
   D     G+9    G      D    G+9    G      D   
e|---------------------7-----------7---------|
B|-------7------9-----------9-------------9--|
G|-9-----------------------------------------|
D|-------------------------------------------|
A|-------------------------------------------|
E|-------------------------------------------|

VERSE 2
 SAME AS THE FIRST

CHORUS 2
 SAME AS THE FIRST EXCEPT THE GUITAR 2 GETS SMART

   GUITAR 2/LEAD
   D     G+9    G      D    D        G+9    G       D
e|-7--9-7-----7-----------|-7----9-7------7------------|
B|-------9--9---9-7---7-9-|----------9--9---9-7----7---|
G|-----------------9------|---------------------9----9-|
D|------------------------|----------------------------|
A|------------------------|----------------------------|
E|------------------------|----------------------------|
  OOO     OOO   OOO    OOO OOO       OOO    OOO     OOO
                           NIETHER WILL HE EE YAY YA YE

  
e|-----------------7---7-9-7---7--------------------|
B|----7----7-9-7-9---9-------9---9-7---7----------5-|
G|-9-----9---------------------------9---9-6--4-6---|
D|--------------------------------------------------|
A|--------------------------------------------------|
E|--------------------------------------------------|

OUTRO

NEXT MORNING UP WITH A #@$%@#

HE'S OBLIVIOUS 

TO ANYTHING THAT HAPPENED 

AFTER HALF PAST TEN



| /  slide up
| \  slide down
| h  hammer-on
| p  pull-off
| ~  vibrato
| +  harmonic
| x  Mute note
===============================================================================
Tap to rate this tab
# A B C D E F G H I J K L M N O P Q R S T U V W X Y Z