Song name
# A B C D E F G H I J K L M N O P Q R S T U V W X Y Z

Misc Unsigned Bands - Francisco Torm - La Primera tab

Afinación Comun

INTRO
guitarra 1
       G              D              Em               C
-------3--------------2---------------0---------------0------|
-----3---3----------3---3-----------0---0-----------1---1----|
---0-------0------2-------2-------0-------0-------0------0---|
-------------------------------------------------------------|
-2----------2---0-----------0---2-----------2---3----------3-|
-------------------------------------------------------------|


VERSO 1

guitarra 1
       G              D              Em               C
-------3--------------2---------------0---------------0-------|
-----3---3----------3---3-----------0---0-----------1---1-----|
---0-------0------2-------2-------0-------0-------0------0----|
--------------------------------------------------------------|
-2----------2---0-----------0---2-----------2---3----------3--|
--------------------------------------------------------------| X2

guitarra 2
     G          D         Em          C
-3-3-3-3-3--2-2-2-2-2--0-0-0-0-0--0-0-0-0-0--|
-3-3-3-3-3--3-3-3-3-3--0-0-0-0-0--1-1-1-1-1--|
-0-0-0-0-0--2-2-2-2-2--0-0-0-0-0--0-0-0-0-0--|
-0-0-0-0-0--0-0-0-0-0--2-2-2-2-2--2-2-2-2-2--|
-2-2-2-2-2-------------2-2-2-2-2--3-3-3-3-3--|
-3-3-3-3-3-------------0-0-0-0-0--0-0-0-0-0--| X2


VERSO 2

guitarra 1

      Em              C               D              Am
-------0--------------0---------------2---------------0-------|
-----0---0----------1---1-----------3---3-----------2---2-----|
---0-------0------0-------0-------2-------2-------3------3----|
--------------------------------------------------------------|
-2----------2---3-----------3---0-----------0---0----------0--|
--------------------------------------------------------------| X2

guitarra 2

    Em          C          D         Am
-0-0-0-0-0--0-0-0-0-0--2-2-2-2-2--0-0-0-0-0--|
-0-0-0-0-0--1-1-1-1-1--3-3-3-3-3--2-2-2-2-2--|
-0-0-0-0-0--0-0-0-0-0--2-2-2-2-2--3-3-3-3-3--|
-2-2-2-2-2--2-2-2-2-2--0-0-0-0-0--3-3-3-3-3--|
-2-2-2-2-2--3-3-3-3-3-------------0-0-0-0-0--|
-0-0-0-0-0--0-0-0-0-0-------------0-0-0-0-0--| X2


CORO

guitarra 1

     G          D         Am          C
-3-3-3-3-3--2-2-2-2-2--0-0-0-0-0--0-0-0-0-0--|
-3-3-3-3-3--3-3-3-3-3--2-2-2-2-2--1-1-1-1-1--|
-0-0-0-0-0--2-2-2-2-2--3-3-3-3-3--0-0-0-0-0--|
-0-0-0-0-0--0-0-0-0-0--3-3-3-3-3--2-2-2-2-2--|
-2-2-2-2-2-------------0-0-0-0-0--3-3-3-3-3--|
-3-3-3-3-3-------------0-0-0-0-0--0-0-0-0-0--| X4


VERSO 1

guitarra 1
       G              D              Em               C
-------3--------------2---------------0---------------0-------|
-----3---3----------3---3-----------0---0-----------1---1-----|
---0-------0------2-------2-------0-------0-------0------0----|
--------------------------------------------------------------|
-2----------2---0-----------0---2-----------2---3----------3--|
--------------------------------------------------------------| X2

guitarra 2
     G          D         Em          C
-3-3-3-3-3--2-2-2-2-2--0-0-0-0-0--0-0-0-0-0--|
-3-3-3-3-3--3-3-3-3-3--0-0-0-0-0--1-1-1-1-1--|
-0-0-0-0-0--2-2-2-2-2--0-0-0-0-0--0-0-0-0-0--|
-0-0-0-0-0--0-0-0-0-0--2-2-2-2-2--2-2-2-2-2--|
-2-2-2-2-2-------------2-2-2-2-2--3-3-3-3-3--|
-3-3-3-3-3-------------0-0-0-0-0--0-0-0-0-0--| X2


VERSO 2

guitarra 1

      Em              C               D              Am
-------0--------------0---------------2---------------0-------|
-----0---0----------1---1-----------3---3-----------2---2-----|
---0-------0------0-------0-------2-------2-------3------3----|
--------------------------------------------------------------|
-2----------2---3-----------3---0-----------0---0----------0--|
--------------------------------------------------------------| X2

guitarra 2

    Em          C          D         Am
-0-0-0-0-0--0-0-0-0-0--2-2-2-2-2--0-0-0-0-0--|
-0-0-0-0-0--1-1-1-1-1--3-3-3-3-3--2-2-2-2-2--|
-0-0-0-0-0--0-0-0-0-0--2-2-2-2-2--3-3-3-3-3--|
-2-2-2-2-2--2-2-2-2-2--0-0-0-0-0--3-3-3-3-3--|
-2-2-2-2-2--3-3-3-3-3-------------0-0-0-0-0--|
-0-0-0-0-0--0-0-0-0-0-------------0-0-0-0-0--| X2

CORO

guitarra 1

     G          D         Am          C
-3-3-3-3-3--2-2-2-2-2--0-0-0-0-0--0-0-0-0-0--|
-3-3-3-3-3--3-3-3-3-3--2-2-2-2-2--1-1-1-1-1--|
-0-0-0-0-0--2-2-2-2-2--3-3-3-3-3--0-0-0-0-0--|
-0-0-0-0-0--0-0-0-0-0--3-3-3-3-3--2-2-2-2-2--|
-2-2-2-2-2-------------0-0-0-0-0--3-3-3-3-3--|
-3-3-3-3-3-------------0-0-0-0-0--0-0-0-0-0--| X8

     C
-0-0-0-0-0-|
-1-1-1-1-1-|
-0-0-0-0-0-|
-2-2-2-2-2-|
-3-3-3-3-3-|
-0-0-0-0-0-|

OUTRO

guitarra 1

 G  D  Em C  Am
-3--2--0--0--0-|
-3--3--0--1--2-|
-0--2--0--0--3-|
-0--0--2--2--3-|
-2-----2--3--0-|
-3-----0--0--0-|
Tap to rate this tab
 
# A B C D E F G H I J K L M N O P Q R S T U V W X Y Z