Song name
# A B C D E F G H I J K L M N O P Q R S T U V W X Y Z

Misc Unsigned Bands - Las Divinas - Gasolina tab

-------------------------------------------10h12p10-|
-7/9-7----------10/12-10-8-----------10/12----------|
-------9--7-9-9------------7/9-7-9-9----------------|
----------------------------------------------------|
----------------------------------------------------|
----------------------------------------------------|

----------------------------------------------------|
-12-10-12-10-------------10/12-10-8-----7-8-7~------|
-------------12-11—7/9-9------------7/9--------9~---|
----------------------------------------------------|
----------------------------------------------------|
----------------------------------------------------|

Em                 B
Nadie pasa de esta esquina
      Am          B
aquí mandan las divinas
       Em         B
porque somos gasolina
     C    D    Em
gasolina de verdad

Em               B
Todos saben quien manda en esta school
Am                   B
Porque nosotras somos gente cool
 Em
gente que siente
      B
con sangre caliente
Am                  B
que quiere hacerse oir
Em               B
Sea como sea aqui no entran feas
Am                 B
pa´que lo veas te voy a mostrar
Em              B
mira esa fea aquella otra fea
Am              B
aqui no puede entrar

Nadie pasa de esta esquina
aquí mandan las divinas
porque somos gasolina
gasolina de verdad

Nosotras bailamos bien you know?
dance, dance y mucho dance
lo que pide tu corazón
your heart, your heart
a ti te vamos a dar
Las divinas, las divinas
brillan, brillan como stars
fuera feas, fuera feas
para ustedes no hay lugar

Nadie pasa de esta esquina
aquí mandan las divinas
porque somos gasolina
gasolina de verdad
------------11-9-13~-----/---13/16-13/15—13~----|
-------10-8--------------/----------------------|
-7/9-7-------------------/----------------------|
-------------------------/----------------------|
-------------------------/----------------------|
-------------------------/----------------------|


--------------------/---10/13-10/12-10p9p8----------|
-----10p8-----------/-------------------------------|
-7/9------9-7-9-7~--/-------------------------------|
--------------------/-------------------------------|
--------------------/-------------------------------|
-------------x2-----/---------------------x2--------|

x 4

Gasolina de verdad, gasolina de verdad.
Tap to rate this tab
# A B C D E F G H I J K L M N O P Q R S T U V W X Y Z