Song name
# A B C D E F G H I J K L M N O P Q R S T U V W X Y Z

Misc Unsigned Bands - Grand Kids - Phresh tab

 1st verse
e|----------------------------------------------------------------------------------|
B|----------------------------------------------------------------------------------|
G|----------------------------------------------------------------------------------|
D|--7-7-7---------------------------------------------------------------------------|
A|--------9-9-9-7-7-7-7-7-7-7-7-7-7-10-10-10-9-9-9-5-5-5-5-5-5-5-5-5----------------|
E|--------------------------------------------------------------------X6------------|
    ^^^   ^^^   ^^^^^^^^^^^^^^^^^^^^ ^^^     ^^^    ^^^^^^^^^^^^^^^^
1st we    will  rise  ====>   and   break the   mold
2nd we    need  to do ====>   a      fucking    show

  play this first(only once)
e|----------------------------------------------------------------------------------|
B|----------------------------------------------------------------------------------|
G|----------------------------------------------------------------------------------|
D|--7-7-7---------------------------------------------------------------------------|
A|--------9-9-9-10-10-10-10-10-10-10-10-10-10-10-10-10-9-9-9-5-5-5-5-5-5-5----------|
E|----------------------------------------------------------------------------------|
    ^^^   ^^^    ^^^^^^^^^^^^^^^^^^^^^^^^^^^^^^^^^^^^^ ^^^    ^^^^^^^^^^^^
3rd Get   the   fuck  ====>                   out      of    here

  then play this second(only once)
e|----------------------------------------------------------------------------------|
B|----------------------------------------------------------------------------------|
G|----------------------------------------------------------------------------------|
D|--7-7-7---------------------------------------------------------------------------|
A|--------9-9-9-10-10-10-10-10-10-10-10-10-10-10-9-9-9-5-5-5-7-7-7-5-5-5-5-5-5-5----|
E|----------------------------------------------------------------------------------|
    ^^^   ^^^    ^^^^^^^^^^^^^^^^^^^^^^^^^^^^^^^  ^^^   ^^^   ^^^   ^^^^^^^^
4th we tell you this ===>               we have  no    fear..

e|----------------------------------------------------------------------------------|
B|----------------------------------------------------------------------------------|
G|--7-7-7-7-7-7---------------------------------------------------------------------|
D|--7-7-7-7-7-7--9-9-9-9-9-9--7-7-7-7-7-7-7-7-7-7-7-7-------------------------------|
A|--5-5-5-5-5-5--9-9-9-9-9-9--7-7-7-7-7-7-7-7-7-7-7-7-------------------------------|
E|---------------7-7-7-7-7-7--5-5-5-5-5-5-5-5-5-5-5-5--X4---------------------------|
        ^^  ^^       ^^  ^^     ^^   ^^  ^^^^^^^^^^^^
                                      fuck you all!!!
                                      fucking cunts!
                                      jump with me!!
                                     (random ass scream)
e|----------------------------------------------------------------------------------|
B|----------------------------------------------------------------------------------|
G|----------------------------------------------------------------------------------|
D|--7-7-7---------------------------------------------------------------------------|
A|--------9-9-9-7-7-7-7-7-7-7-7-7-7-10-10-10-9-9-9-5-5-5-5-5-5-5--------------------|
E|---------------------------------------------------------------X2-----------------|
     ^^^   ^^^                        ^^^     ^^^
5th tell  your  mom          come  in       my    room
6th I     need  someone       to    suck     me    off.....

then pause for 2 seconds exactly
(in these 2 sec. yell out) ALL NIGHT LONG!!!
then continue playing

e|------------------------------------------------------------------------------|
B|------------------------------------------------------------------------------|
G|--7-7-7-7-7-7-----------------------------------------------------------------|
D|--7-7-7-7-7-7--9-9-9-9-9--7-7-7-7-7-7-7-7-7-7-7-7-----------------------------|
A|--5-5-5-5-5-5--9-9-9-9-9--7-7-7-7-7-7-7-7-7-7-7-7-----------------------------|
E|---------------7-7-7-7-7--5-5-5-5-5-5-5-5-5-5-5-5--X3-------------------------|
        ^^  ^^     ^^  ^^     ^^   ^^  ^^^^^^^^^^^^
                                 Jesus fuck!!!!
                                 feels so fresh!
                                (michael jackson laugh)
f
e|------------------------------------------------------------------------------|
B|------------------------------------------------------------------------------|
G|--7-7-7----------------------------5-5-5--------------------------------------|
D|--7-7-7--9-9-9--7-7-7-7-7-7-7-7-7--5-5-5--7-7-7--5-5-5-5-5-5------------------|
A|--5-5-5--9-9-9--7-7-7-7-7-7-7-7-7--3-3-3--7-7-7--5-5-5-5-5-5------------------|
E|---------7-7-7--5-5-5-5-5-5-5-5-5---------5-5-5--3-3-3-3-3-3---X2-------------|
     ^^^    ^^^   ^^^^^^^^^^^^^^^^^  ^^^    ^^^    ^^^^^^^^^^^


X with number = how many times it is played
singing starts at the 1st verse but after you play it 3 times so singing starts the 4th 
it is played.
tempo is very fast not crazy fast but fast paced like around 144
^^= strum up and down fast
^^^= strum up and down like a triplet fast
^^^^^^^^^^^= strum up and down fast!

well the song is not up yet but im getting the tab for it out of my way to make it 
for me so yeah go check us out at   www.myspace.com/grandkds
and support us with comments and new music including this particular song is being 
right now so yeah thanks :D
p.s. use this site to listen to the tempo of the song http://www.metronomeonline.com/
Tap to rate this tab
# A B C D E F G H I J K L M N O P Q R S T U V W X Y Z