Song name
# A B C D E F G H I J K L M N O P Q R S T U V W X Y Z

Misc Unsigned Bands - Dear Faye - 1 Year Today tab

Song: 1 Year Today
Album: N/A
Artist: Dear Faye
Tuning: Guitar 1: Half-Step Down
        Guitar 2: Drop D

Guitar 1: Acoustic
Guitar 2: Distorted


Verse 1

Guitar 1
e|-------------------------|-------------| 
B|-------------------------|-------------| 
G|-----4-----4-----4-----4-|-----4-----4-| 
D|---2-----2-----2-----2---|---2-----2---| 
A|-3-----3-----3-----3-----|-3-----3-----| 
E|-------------------------|-------------| 

e|-------------------------|-------------|
B|-------------------------|-------------|
G|-----2-----2-----2-----2-|-----2-----2-|
D|---0-----0-----0-----0---|---0-----0---|
A|-3-----3-----3-----3-----|-3-----3-----|
E|-------------------------|-------------|

e|-------------------------|-------------|
B|-------------------------|-------------|
G|-----0-----0-----0-----0-|-----0-----0-|
D|---2-----2-----2-----2---|---2-----2---|
A|-0-----0-----0-----0-----|-0-----0-----|
E|-------------------------|-------------|

e|-------------------------|-------------|
B|-------------------------|-------------|
G|-----2-----2-----2-----2-|-----2-----2-|
D|---0-----0-----0-----0---|---0-----0---|
A|-2-----2-----2-----2-----|-2-----2-----|
E|-------------------------|-------------|

e|-------------------------|-------------|
B|-------------------------|-------------|
G|-----0-----0-----0-----0-|-----0-----0-|
D|---2-----2-----2-----2---|---2-----2---|
A|-0-----0-----0-----0-----|-0-----0-----|
E|-------------------------|-------------|

Pre-chorus

Guitar 1
e|-----------------------|       
B|-----------------------|       
G|-4-4-4-4-4-4-4-4-4-4-4-|  x2   
D|-2-2-2-2-2-2-2-2-2-2-2-|       
A|-3-3-3-3-3-3-3-3-3-3-3-|       
E|-----------------------|          
PM..... ..... ..... ...

Guitar 2
e|-----------------------|
B|-----------------------|
G|-4-4-4-4-4-4-4-4-4-4-4-|  x2
D|-2-2-2-2-2-2-2-2-2-2-2-|
A|-3-3-3-3-3-3-3-3-3-3-3-|
D|-----------------------|

Guitar 1
e|-----------------------|
B|-----------------------|
G|-2-2-2-2-2-2-2-2-2-2-2-|  x2
D|-0-0-0-0-0-0-0-0-0-0-0-|
A|-3-3-3-3-3-3-3-3-3-3-3-|
E|-----------------------|
PM..... ..... ..... ...

Guitar 2
e|-----------------------|
B|-----------------------|
G|-2-2-2-2-2-2-2-2-2-2-2-|  x2
D|-0-0-0-0-0-0-0-0-0-0-0-|
A|-3-3-3-3-3-3-3-3-3-3-3-|
D|-----------------------|

Guitar 1
e|-----------------------|
B|-----------------------|
G|-0-0-0-0-0-0-0-0-0-0-0-|  x2
D|-2-2-2-2-2-2-2-2-2-2-2-|
A|-0-0-0-0-0-0-0-0-0-0-0-|
E|-----------------------|
PM..... ..... ..... ...

Guitar 2
e|-----------------------|
B|-----------------------|
G|-0-0-0-0-0-0-0-0-0-0-0-|  x2
D|-2-2-2-2-2-2-2-2-2-2-2-|
A|-0-0-0-0-0-0-0-0-0-0-0-|
D|-----------------------|

Guitar 1
e|-----------------------|
B|-----------------------|
G|-2-2-2-2-2-2-2-2-2-2-2-|  x2
D|-0-0-0-0-0-0-0-0-0-0-0-|
A|-2-2-2-2-2-2-2-2-2-2-2-|
E|-----------------------|
PM..... ..... ..... ...

Guitar 2
e|-----------------------|
B|-----------------------|
G|-2-2-2-2-2-2-2-2-2-2-2-|  x2
D|-0-0-0-0-0-0-0-0-0-0-0-|
A|-2-2-2-2-2-2-2-2-2-2-2-|
D|-----------------------|

Chorus

Guitar 1
e|-0--0-0-0-0--0-|
B|-X--X-X-X-X--X-|
G|-4--4-4-4-4--4-|  x2
D|-2--2-2-2-2--2-|
A|-3--3-3-3-3--3-|
E|-0--0-0-0-0--0-|

Guitar 2
e|-3------3----5-|
B|-3------3----5-|
G|-0------0----0-|  x2
D|-2------2----4-|
A|-3------3----5-|
D|-0------0----0-|

Guitar 1
e|-X--X-X-X-X--X-|
B|-3--3-3-3-3--3-|
G|-2--2-2-2-2--2-|  x2
D|-0--0-0-0-0--0-|
A|-3--3-3-3-3--3-|
E|-0--0-0-0-0--0-|

Guitar 2
e|-0--------0--0-|
B|-0--------0--1-|
G|-1--------1--2-|  x2
D|-2--------2--2-|
A|-2--------2--0-|
D|-0--------0--0-|

Guitar 1
e|-0--0-0-0-0--0-|
B|-3--3-3-3-3--3-|
G|-0--0-0-0-0--0-|  x2
D|-2--2-2-2-2--2-|
A|-0--0-0-0-0--0-|
E|-0--0-0-0-0--0-|

Guitar 2
e|-2--------2--4-|
B|-3--------3--5-|
G|-4--------4--6-|
D|-4--------4--6-|
A|-2--------2--4-|
D|-X--------X--X-|

Guitar 1
e|-X--X-X-X-X--X-|
B|-3--3-3-3-3--3-|
G|-2--2-2-2-2--2-|  x2
D|-0--0-0-0-0--0-|
A|-2--2-2-2-2--2-|
E|-0--0-0-0-0--0-|

Guitar 2
e|----------------|
B|----------------|
G|------------10--|
D|-8--------8-8---|
A|-6--------6-8---|
D|-6--------6-8---|

Guitar 1
e|-0--0-0-0-0--0-|
B|-3--3-3-3-3--3-|
G|-0--0-0-0-0--0-|  x2
D|-2--2-2-2-2--2-|
A|-0--0-0-0-0--0-|
E|-0--0-0-0-0--0-|

Guitar 2
e|-2--2-2-2-2--2-|
B|-5--5-5-5-5--5-|
G|-2--2-2-2-2--2-|  x2
D|-4--4-4-4-4--4-|
A|-2--2-2-2-2--2-|
E|-2--2-2-2-2--2-|

Verse 2

Guitar 1
e|-------------------------|-------------|
B|-------------------------|-------------|
G|-----7-----7-----7-----7-|-----7-----7-|
D|---5-----5-----5-----5---|---5-----5---|
A|-5-----5-----5-----5-----|-5-----5-----|
E|-------------------------|-------------|

e|-------------------------|-------------|
B|-------------------------|-------------|
G|-----7-----7-----7-----7-|-----7-----7-|
D|---4-----4-----4-----4---|---4-----4---|
A|-5-----5-----5-----5-----|-5-----5-----|
E|-------------------------|-------------|

e|-------------------------|-------------|
B|-------------------------|-------------|
G|-----6-----6-----6-----6-|-----6-----6-|
D|---4-----4-----4-----4---|---4-----4---|
A|-5-----5-----5-----5-----|-5-----5-----|
E|-------------------------|-------------|

e|-------------------------|-------------|
B|-------------------------|-------------|
G|-----4-----4-----4-----4-|-----4-----4-|
D|---2-----2-----2-----2---|---2-----2---|
A|-3-----3-----3-----3-----|-3-----3-----|
E|-------------------------|-------------|

e|-------------------------|-------------|
B|-------------------------|-------------|
G|-----2-----2-----2-----2-|-----2-----2-|
D|---0-----0-----0-----0---|---0-----0---|
A|-2-----2-----2-----2-----|-2-----2-----|
E|-------------------------|-------------|

Outro

Guitar 1
e|-0--0-0-0-0--0-|-0--0-0-0-0--0-|
B|-X--X-X-X-X--X-|-X--X-X-X-X--X-|
G|-4--4-4-4-4--4-|-4--4-4-4-4--4-|
D|-2--2-2-2-2--2-|-2--2-2-2-2--2-|
A|-3--3-3-3-3--3-|-3--3-3-3-3--3-|
E|-0--0-0-0-0--0-|-0--0-0-0-0--0-|

Guitar 2
e|--------------------------------------|
B|--------------------------------------|
G|-10-10-10-10-10-10-10-|-------6-6-6-6-|
D|-8--8--8--8--8--8--8--|-8-8-8-4-4-4-4-|
A|-8--8--8--8--8--8--8--|-6-6-6-4-4-4-4-|
D|-8--8--8--8--8--8--8--|-6-6-6-4-4-4-4-|

Guitar 1
e|-X--X-X-X-X--X-|-X--X-X-X-X--X-|
B|-3--3-3-3-3--3-|-3--3-3-3-3--3-|
G|-2--2-2-2-2--2-|-2--2-2-2-2--2-|
D|-0--0-0-0-0--0-|-0--0-0-0-0--0-|
A|-3--3-3-3-3--3-|-3--3-3-3-3--3-|
E|-0--0-0-0-0--0-|-0--0-0-0-0--0-|

Guitar 2
e|--------------------------------------|
B|--------------------------------------|
G|-10-10-10-10-10-10-10-|-------6-6-6-6-|
D|-8--8--8--8--8--8--8--|-8-8-8-4-4-4-4-|
A|-8--8--8--8--8--8--8--|-6-6-6-4-4-4-4-|
D|-8--8--8--8--8--8--8--|-6-6-6-4-4-4-4-|

Guitar 1
e|-0--0-0-0-0--0-|-0--0-0-0-0--0-|
B|-3--3-3-3-3--3-|-3--3-3-3-3--3-|
G|-0--0-0-0-0--0-|-0--0-0-0-0--0-|
D|-2--2-2-2-2--2-|-2--2-2-2-2--2-|
A|-0--0-0-0-0--0-|-0--0-0-0-0--0-|
E|-0--0-0-0-0--0-|-0--0-0-0-0--0-|


Guitar 2
e|--------------------------------------|
B|--------------------------------------|
G|-10-10-10-10-10-10-10-|-------6-6-6-6-|
D|-8--8--8--8--8--8--8--|-8-8-8-4-4-4-4-|
A|-8--8--8--8--8--8--8--|-6-6-6-4-4-4-4-|
D|-8--8--8--8--8--8--8--|-6-6-6-4-4-4-4-|

Guitar 1
e|-X--X-X-X-X--X-|-X--X-X-X-X--X-|
B|-3--3-3-3-3--3-|-3--3-3-3-3--3-|
G|-2--2-2-2-2--2-|-2--2-2-2-2--2-|
D|-0--0-0-0-0--0-|-0--0-0-0-0--0-|
A|-2--2-2-2-2--2-|-2--2-2-2-2--2-|
E|-0--0-0-0-0--0-|-0--0-0-0-0--0-|

Guitar 2
e|--------------------------------------|
B|--------------------------------------|
G|-10-10-10-10-10-10-10-|-------6-6-6-6-|
D|-8--8--8--8--8--8--8--|-8-8-8-4-4-4-4-|
A|-8--8--8--8--8--8--8--|-6-6-6-4-4-4-4-|
D|-8--8--8--8--8--8--8--|-6-6-6-4-4-4-4-|

Guitar 1
e|-0--0-0-0-0--0-|-0--0-0-0-0--0-|
B|-3--3-3-3-3--3-|-3--3-3-3-3--3-|
G|-0--0-0-0-0--0-|-0--0-0-0-0--0-|
D|-2--2-2-2-2--2-|-2--2-2-2-2--2-|
A|-0--0-0-0-0--0-|-0--0-0-0-0--0-|
E|-0--0-0-0-0--0-|-0--0-0-0-0--0-|

Guitar 2
e|--------------------------------------|
B|--------------------------------------|
G|-10-10-10-10-10-10-10-|-------6-6-6-6-|
D|-8--8--8--8--8--8--8--|-8-8-8-4-4-4-4-|
A|-8--8--8--8--8--8--8--|-6-6-6-4-4-4-4-|
D|-8--8--8--8--8--8--8--|-6-6-6-4-4-4-4-|






Order:
     -Verse 1
     -Pre-Chorus
     -Chorus
     -Verse 2
     -Pre-Chorus
     -Outro (repeat untill fade)

I hope you all enjoy.
Tap to rate this tab
 
# A B C D E F G H I J K L M N O P Q R S T U V W X Y Z