Song name
# A B C D E F G H I J K L M N O P Q R S T U V W X Y Z

Misc Unsigned Bands - Ark Peninsula - Rise And Fall tab

Guitar 1 verse 1&2
c#---------------------------------------------------------------------|
g#---------------------------------------------------------------------|
e ---------------------------------------------------------------------|
b ---------------------------------------------------------------------|
f#----3-2-0-2-----3-2-0-2----------0-0-0-3-2-0-0-0--3-2-0-2-0-2h3------|
B --2---------0-2---------0-0-2-2b-------------------------------------|(2X)
 PM * * * * * * * * * * *          * * * * * * * *  * * * * *
c#--------------------------------------------------------------------|
g#--------------------------------------------------------------------|
e --------------------------------------------------------------------|
b --------------------------------------------------------------------|
f#----3-2-0-2-----3-2-0-2----------0-0-0-3-2-0-0-0--3-2-0-2-0-2h3-----|
B --2---------0-2---------0-0-2-2b------------------------------------|

c#--------------------------------------------------------------------|
g#--------------------------------------------------------------------|
e --------------------------------------------------------------------|
b -----------------------------------00-00---00-00---0--0--0----------|
f#----3-2-0-2-----3-2-0-2------------00-00---00-00---0--0--0----------|
B --2---------0-2---------0-0-2-2b---00-00---00-00---0--0--0----------|

Guitar 1 chorus 1
c#-----------------------------------------------------------------------|
g#-----------------------------------------------------------------------|
e -----------7--7-------------------------------7---7--------------------|
b -2-22-2--5---5----7-77-7----7---7---2-22-2--5---5----7-77-7--5/4--7/6--|
f#-2-22-2-----------7-77-7--5---5-----2-22-2-----------7-77-7--5/4--5/4--|
B -2-22-2-----------7-77-7------------2-22-2-----------7-77-7--5/4-------|
     **               **                **               **
Guitar 2 chorus 1
c#-----------------------------------------------------------------------|
g#-----------------------------------------------------------------------|
e -----------------------------------------------------------------------|
b -2-22-2----5---5--7-77-7----7---7---2-22-2----5---5--7-77-7--5/4--7/6--|
f#-2-22-2--3---3----7-77-7--5---5-----2-22-2--3---3----7-77-7--5/4--5/4--|
B -2-22-2-----------7-77-7------------2-22-2-----------7-77-7--5/4-------|
     **               **                **               **
Guitar 1 chorus 2&3
c#-----------------------------------------------------------------------|
g#-----------------------------------------------------------------------|
e -----------7--7-------------------------------7---7--------------------|
b -2-22-2--5---5----7-77-7----7---7---2-22-2--5---5----7-77-7---7-7-7----|
f#-2-22-2-----------7-77-7--5---5-----2-22-2-----------7-77-7---5-5-5----|
B -2-22-2-----------7-77-7------------2-22-2-----------7-77-7------------|
     **               **                **               **
c#-----------------------------------------------------------------------|
g#-(with wah)------------------------------------------------------------|
e -----------------------------------------------------------------------|
b -99999-99999--12121212--99999-99999-9h10p9-7/9--99999-99999--12121212--|
f#-77777-77777--10101010--77777-77777-------------77777-77777--10101010--|
B -----------------------------------------------------------------------|

c#------------------------------|
g#----------(wah off)-----------|
e ------------------------------|
b -99999-9---5/4--7/6--0--2-----|
f#-77777-7---5/4--5/4--0--2-----|
B------------5/4-------0--2-----|

Guitar 2 chorus 2&3
c#-----------------------------------------------------------------------|
g#-----------------------------------------------------------------------|
e -----------------------------------------------------------------------|
b -2-22-2----5---5--7-77-7----7---7---2-22-2----5---5--7-77-7---7-7-7----|
f#-2-22-2--3---3----7-77-7--5---5-----2-22-2--3---3----7-77-7---5-5-5----|
B -2-22-2-----------7-77-7------------2-22-2-----------7-77-7------------|

c#-----------------------------------------------------------------------|
g#-----------------------------------------------------------------------|
e -----------------------------------------------------------------------|
b -2-22-2----5---5--7-77-7----7---7---2-22-2----5---5--7-77-7---5/4--7/6-|
f#-2-22-2--3---3----7-77-7--5---5-----2-22-2--3---3----7-77-7---5/4--5/4-|
B -2-22-2-----------7-77-7------------2-22-2-----------7-77-7---5/4------|

c#--------|
g#--------|
e --------|
b -0--2---|
f#-0--2---|
B -0--2---|

Guitar 1 bridge(acoustic)
c#-----0------0----0-----2--------------0---0---0---2----------------|
g#-----0------1----0-----3--------------0---1---0---3--(strum)-------|
e -----0------0----2---2-2--------------0---0---2---2----------------|
b#-----2----2----2---0------------------2---2---2---0----------------|
f#---2----3----0------------------------2---3---0--------------------|
B -2--------------------(2X)------------2------------------(2X)------|

Guitar 1 bridge(second half w/ distortion)
c#-------------------------------------------------------------------|
g#-------------------------------------------------------------------|
e -------------------------------------------------------------------|
b --9(12x)-----12----12--7(12x)----7----7---9(12x)----12---12--------|
f#--7------10----10------7------5----5------7------10---10-----------|
B -----------------------7-------------------------------------------|

c#-------------------------------------------------------------------|
g#-------------------------------------------------------------------|
e -------------------------------------------------------------------|
b --7(10x)-0------9(12x)--12121212---7(12x)--7777---9(12x)--12121212-|
f#--7------0------7-------10101010---7-------5555---7-------10101010-|
B --7------0-------------------------7-------------------------------|

c#-------------------------|
g#-------------------------|
e -------------------------|
b --7(12x)-------7-----7---|
f#--7---------5-----5------|
B---7----------------------|

Guitar 2 bridge(second half w/ distortion)
c#--------------------------------------------------------------------|
g#--------------------------------------------------------------------|
e --------------------------------------------------------------------|
b --9(12x)-----5-----5-----7(12x)----7----7---9(12x)-----5-----5------|
f#--7-------3-----3--------7------5----5------7------3-----3----------|
B -------------------------7------------------------------------------|

c#--------------------------------------------------------------------|
g#--------------------------------------------------------------------|
e --------------------------------------------------------------------|
b --7(10x)-0------9(12x)-------------7(12x)--7777---9(12x)------------|
f#--7------0------7-------10101010---7-------5555---7-------10101010--|
B --7------0--------------10101010---7----------------------10101010--|

c#-------------------------|
g#-------------------------|
e -------------------------|
b --7(12x)-------7-----7---|
f#--7---------5-----5------|
B---7----------------------|

verse 1
chorus 1
verse 2
chorus 2
bridge 1
bridge 2
chorus 3
Tap to rate this tab
# A B C D E F G H I J K L M N O P Q R S T U V W X Y Z