Song name
# A B C D E F G H I J K L M N O P Q R S T U V W X Y Z

Misc Unsigned Bands - Asking Alexandria - A Single Moment Of Sincerity tab

----------------------------------------------------------------------------
              Asking Alexandria: A Single Moment Of Sincerity
----------------------------------------------------------------------------

Band: Asking Alexandria
Song: A Single Moment Of Sincerity 
Album: 2008 Demo
Tabbed By: Matt Scenini
Email: da_grim_rulz@hotmail.com

this is my first tab i only got about half of the song tell me what u thing of it 
so far comment plz

Tuning: Drop D (D,A,D,G,B,E)

| /  slide up
| \  slide down
| h  hammer-on
| p  pull-off
| ~  vibrato
| +  harmonic
| x  Mute note
| b  bending
| .  palm muted

intro (0.00-0.16)
                                                               (x2)
E|-----------------------------------------------------------------|-------|
B|-----------------------------------------------------------------|-------|
G|---------10-10-10---------10-10-10---------10-10-10--------9-9-9-|-------|
D|---------x--x--x----------x--x--x----------x--x--x---------x-x-x-|-------|
A|--0-0-0--8--8--8---0-0-0--8--8--8---0-0-0--8--8--8--0-0-0--7-7-7-|--0----|
D|--0-0-0------------0-0-0------------0-0-0-----------0-0-0--------|--0----|
                                                                      .
verse (0.17-0.41)                                                                             

E|-------------------------------------------------------------------------|
B|-------------------------------------------------------------------------|
G|-------------------------------------------------------------------------|
D|-------------------------------------------------------------------------|
A|-0-0-0000-00-00000-0-0000-00-00000-0-0-0000--00000-0-0-0000--00000-------|
D|-0-0-0000-00-00000-0-0000-00-00000-1-1-1111--11111-1-1-1111--11111-------|
   . . .... .. ..... . .... .. ..... . . ....  ..... . . ....  .....

E|-------------------------------------------------------------------------|
B|-------------------------------------------------------------------------|
G|-------------------------------------------------------------------------|
D|-------------------------------------------------------------------------|
A|-0-0-0000-00-00000-0-0000-00-00000---------------------------------------|
D|-0-0-0000-00-00000-0-0000-00-00000---------------------------------------|
   . . .... .. ..... . .... .. .....

Verse(0.50-1.00)

E|-------------------------------------------------------------------------|
B|-------------------------------------------------------------------------|
G|-------------------------------------------------------------------------|
D|-------------------------------------------------------------------------|
A|---5---7---8---7---5---7---8---7---5---7---8---7---8---10---8---7--------|
D|-0---0---0---0---0---0---0---0---0---0---0---0---0---0----0---0----------|
   .   .   .   .   .   .   .   .   .   .   .   .   .   .    .   .   

E|-------------------------------------------------------------------------|
B|-------------------------------------------------------------------------|
G|-------------------------------------------------------------------------|
D|-------------------------------------------------------------------------|
A|---5---7---8---7---5---7---8---5---7---8---7-0---------------------------|
D|-0---0---0---0---0---0---0---0---0---0---0---0---------------------------|
   .   .   .   .   .   .   .   .   .   .   .   .

Verse (1.01-1.10)

                                                                     (x2)
E|-------------------------------------------------------------------------|
B|-------------------------------------------------------------------------|
G|-------------------------------------------------9/10--9/10----7+--------|
D|-------------------------------------------------x/x---x/x---------------|
A|-5P0-7P0-8P0-7P0-5P0-7P0--------5P0-7P0-8P0-7P0--7/8---7/8---------------|
D|-------------------------000000----------------------0-----0-------------|
                           ......                      .     .
verse (1.11-1.36)
                                                                     (x4)       
E|-----------------|-------------------------------------------------------|
B|-----------------|-------------------------------------------------------|
G|-----------------|-----7-9----99-----------------------------------------|
D|-----------------|-----x-x----88-8P0-----7P0-----------------------------|
A|-----------------|-----5/7----------7P8----------------------------------|
D|-000-000-000-000-|-000-----00--------------------------------------------|
   ... ... ... ...   ...     ..
verse (1.37-1.56)
                                                                     (x3)
E|-------------------------------------------------------------------------|
B|-------------------------------------------------------------------------|
G|-------------5P0-7P0-7/8\7-----------0h7h10-0h6h9-0h5h8-0h7h10-----------|
D|-------------------------------------------------------------------------|
A|-------------------------------------------------------------------------|
D|-00000-00000---------------0-000-000-------------------------------------|
   ..... .....               . ... ...
tell me wat u think
Tap to rate this tab
 
# A B C D E F G H I J K L M N O P Q R S T U V W X Y Z