Song name
# A B C D E F G H I J K L M N O P Q R S T U V W X Y Z

Misc Unsigned Bands - Black Veil Brides - Knives And Pens tab

|---------------------------------------------------------------------------|
	        	        	  Knives and Pens - Black Veil Brides            
|---------------------------------------------------------------------------|



Tuning:D A D G B e
|-------------------------------------Intro---------------------------------|
                                                                ending 1
e|------------------------------------------------------------|-------------|
B|-----------------------------------------------------------o|-------------|
G|------------------------------------------------------------|-12----------|
D|----------------------7---------8-8--8------------10-10-----|----10Tr(12)-|
A|-----8---10---7h8p7-----10-8-7--8-8------12---10--10-10----o|-------------|
D|-0-0---0----0-------0-----------8-8----8----8-----10-10-----|-------------|
   x x   x    x       x           x x    x    x      x  x

    ending 2          Last Time Play This
e|----------------|---------------------------------------------------------|
B|----------------|---------------------------------------------------------|
G|--10-9----------|---------------------------------------------------------|
D|-------12-10----|----------------------7---------8-8--8-------------------|
A|-------------12-|-----8---10---7h8p7-----10-8-7--8-8------12-10-8-10~~----|
D|----------------|-0-0---0----0-------0-----------8-8----8-----------------|
                    x x   x    x       x           x x    x



| Tr Trill
| /  slide up
| \  slide down
| h  hammer-on
| p  pull-off
| ~  vibrato
| +  harmonic
| x  Mute note
=============================================================================
Tap to rate this tab
# A B C D E F G H I J K L M N O P Q R S T U V W X Y Z