Song name
# A B C D E F G H I J K L M N O P Q R S T U V W X Y Z

Misc Unsigned Bands - Corrupt - Soldiers Trauma tab

intro: lead. skal spilles efter rytme riffet er blevet spillet to gange.

e------------------------------|
b------------------------------|
g------------------------------|
d------------------------------|
a-7xx7xx7xx7xx7xx7xx7xx7xx7xx7-|
E------------------------------|

spilles når riffet går rigtigt i gang.
e--------------------------------------------------------|
b--------------------------------------------------------|
g--------------------------------------------------------|
d----------------------------7-7-7-7-7-7-7-5-5-5-5-5-5-5-| x3
a-7-7-7-7-7-7-7-5-5-5-5-5-5-5----------------------------|
E--------------------------------------------------------|

rytme solo: spilles når der bliver spillet powerakkord.

e---------------------------------------------------------------------|
b---------------------------------------------------------------------|
g---------------------------5-7-7b-7-b-5-7-5-7/8b------------5b-7b----|
d-5b-7b-7b-7b-7b-7b--5-7-5b-----------------------7b-7-7-7-5----------|
a---------------------------------------------------------------------|
E---------------------------------------------------------------------|

--------------------------------------------------------------------|
--5b-8b-8b-8b-8b--5p8--5p8--5p8--5p8--5p8--5p8--5p8--5p8--5p8-------|
---------------------------------------------------------------5-7b-|
--------------------------------------------------------------------|
--------------------------------------------------------------------|
--------------------------------------------------------------------|

--------------------------------------------------|
--------------------------------------------------|
-7b-7b-7b-7b-7b--5~~--5-5-7-7-7-7-7-7---------7~~-|
--------------------------------------5b--7b--7~~-|
--------------------------------------------------|
--------------------------------------------------|

skal spilles lige efter solo i samme takt som rytmen.
e--------------------------------------------------------|
b--------------------------------------------------------|
g--------------------------------------------------------|
d----------------------------7-7-7-7-7-7-7-5-5-5-5-5-5-5-| x3
a-7-7-7-7-7-7-7-5-5-5-5-5-5-5----------------------------|
E--------------------------------------------------------|

bliver spillet imens der bliver spillet stop mute power akkord. skal spilles lavere 
den afsluttende del kommer.
e------------------------------|
b------------------------------|
g------------------------------|
d------------------------------|
a-7xx7xx7xx7xx7xx7xx7xx7xx7xx7-|
E------------------------------|
Tap to rate this tab
 
# A B C D E F G H I J K L M N O P Q R S T U V W X Y Z