Song name
# A B C D E F G H I J K L M N O P Q R S T U V W X Y Z

Misc Unsigned Bands - Akcent - Kylie tab

THE LEGENDARY SONG BY THE GREAT ARTIST AKCENT, KYLIE!

Even though this song is without guitar, this sounds like the melody he is singing ;)
by: AE

E-----------------|-----------------|
B-----------------|-----------------|
G-----------------|-2---------------|
D-0--2--3--2--3---|----0--0--3--2---|
A-----------------|-----------------|
E-----------------|-----------------|

E-----------------|-----------------|
E-----------------|-----------------|
B-----------------|-----------------|
G-----------------|--------2--------|
D-----0--0--2--3--|--2--3-----0--0--|
A--3--------------|-----------------|
E-----------------|-----------------|

E-----------------|-----------------|
B--------1--------|-----------------|
G-----------2-----|---------------2-|
D--2--3-----------|--0--2--3-2-3----|
A-----------------|-----------------|
E-----------------|-----------------|

E-----------------|-----------------|
B-----------------|-----------------|
G-----------------|-----------------|
D--0--0--3--2-----|--0--0--2--3--0--|
A--------------3--|-----------------|
E-----------------|-----------------|

E-----------------|-----------------|
B-----------------|-----------------|
G-----------------|-----------------|
D--3--0--0--0-----|--------0--0-----|
A--------------3--|--3--3-----------|
E-----------------|-----------------|
Tap to rate this tab
# A B C D E F G H I J K L M N O P Q R S T U V W X Y Z