Song name
# A B C D E F G H I J K L M N O P Q R S T U V W X Y Z

Misc Unsigned Bands - The Best Hammer - On Tune In The World tab

Tune the first E String to D. Thats all ;)
The whole Solo is playing on the 3th. Cap 


E|-------------------------------------|
B|-------------------------------------|
G|-------------------------------------|
D|--------4h0--------------------------|
A|--5h0---------5h0---5h4\0------------|
D|----------------------------5h4\0----|


E|----------------------------------------------------------------|
B|----------------------------------------------------------------|
G|----------------------------------------------------------------|
D|--------4h0-------------------------------4h0-------------------|
A|--5h0---------5h0---5h4\0---5h4\0---5h0---------5h4\0-----------|
D|--------------------------------------------------------5h4\0---|


h - Hammer on
\ - slide into from above or out of downwards

I hope the tabs are correct...
I'm sry of the incorrect gramma of Tab
Tap to rate this tab
 
# A B C D E F G H I J K L M N O P Q R S T U V W X Y Z