Song name
# A B C D E F G H I J K L M N O P Q R S T U V W X Y Z

Misc Unsigned Bands - Mercy Mercedes - Outta Time tab

-----------------------------------------------------------------------------
			  Outta Time - Mercy Mercedes
-----------------------------------------------------------------------------
Tabbed by: JovinF
Email: jvn_famor_shino@yahoo.com

Tuning: Standard

Intro:

e|---------------------------------------------------|
B|---------------------------------------------------|
G|---------------------------------------------------|
D|---------------------------------------------------|
A|-----4~~-------------------------------------------|
E|----------4~~--6~~--2~~----------------------------|

Verse: only bass though (who cares)

e|------------------------------------------|\
B|------------------------------------------| \
G|----6-------------------------------------|  \
D|----6-x4--6-----8-----4----6--------------|  /  2x
A|----4-----6-x4--8-x4--4-x3-6--------------| /
E|----------4-----6-----2----4--------------|/

Then

e|---4~~--4~~--6~~--2~~---------------------|\
B|---4~~--4~~--6~~--2~~---------------------| \
G|---6~~--4~~--6~~--2~~---------------------|  \
D|---6~~--6~~--8~~--4~~---------------------|  / 2x
A|---4~~--6~~--8~~--4~~---------------------| /
E|--------4~~--6~~--2~~---------------------|/

Chorus:
       
e|------------------------------------------|\
B|------------------------------------------| \
G|----6-x-6-6-------------------------------|  \  
D|----6-x-6-6-6-x-6-6-6--8-x-8-8-4-x-4-4-6--|  /  4x
A|----4-x-4-4-6-x-6-6-6--8-x-8-8-4-x-4-4-6--| /
E|------------4-x-4-4-4--6-x-6-6-2-x-2-2-4--|/

Bridge:
     .  . .  .  . .  .  . .  .  . . .
e|------------------------------------------|
B|------------------------------------------|
G|---6--6-6---------------------------------|
D|---6--6-6--6--6-6--8--8-8--4--4-4-6-------|
A|---4--4-4--6--6-6--8--8-8--4--4-4-6-------|
E|-----------4--4-4--6--6-6--2--2-2-4-------|

e|------------------------------------------|
B|------------------------------------------|
G|---6--6-6---------------------------------|
D|---6--6-6--6--6-6--8--8-8---6-------------|
A|---4--4-4--6--6-6--8--8-8---6-------------|
E|-----------4--4-4--6--6-6---4-------------|

Outro: Repeat Chorus 

Legends:
        . = palm mute
        ~ = let ring

...hi, not sure with the tabs though.
i learned it by ear,so,if there's any mistakes..
just email me for the updates..
peace out :)
     


Tap to rate this tab
# A B C D E F G H I J K L M N O P Q R S T U V W X Y Z