Song name
# A B C D E F G H I J K L M N O P Q R S T U V W X Y Z

Misc Unsigned Bands - The Freefallers - Freefalling tab

Intro:
E|--9--9--11--9--9--9--11--9--9--9--11--9--9--9--11--|
B|--9--9--11--9--9--9--11--9--9--9--11--9--9--9--11--|
G|---------------------------------------------------| x4
D|---------------------------------------------------|
A|---------------------------------------------------|
E|---------------------------------------------------|

E|-----------------------------------------------------|
B|-----------------------------------------------------|
G|-----------------------------------------------0-----|x4
D|-----------------------------------------------0-----|
A|-----------------------------------------------------|
E|--1--1--1--1--1--1--1--1--1--1--1--1--1--1--1--------|

Chorus:
E|--------------------------------------------------------------------------|
B|--------------------------------------------------------------------------|
G|--------------------------------------------------------------------------|
D|--------------------------------------------------------------------------|
A|--9--9--9--9--9--9--9--9--7--7--7--7--7--7--7--7--5--5--5--5--5--5--5--5--|
E|--7--7--7--7--7--7--7--7--5--5--5--5--5--5--5--5--3--3--3--3--3--3--3--3--|

E|--------------------------|
B|--------------------------|
G|--------------------------|x2
D|--------------------------|
A|--6--6--6--6--7--7--7--7--|
E|--4--4--4--4--5--5--5--5--|

Solo:
E|--------------------------13--15b17--17--17--17--17--17--17--15--14--13--------------|
B|--------------13--13--15-------------------------------------------------15--14--13--|
G|--13--13--15-------------------------------------------------------------------------|
D|-------------------------------------------------------------------------------------|
A|-------------------------------------------------------------------------------------|
E|-------------------------------------------------------------------------------------|

E|------------------12--11--10-----------------------------|
B|------------------------------12--11--10-----------------|
G|--15--14--13--12w-------------------------12--11--10--9w-|
D|---------------------------------------------------------|
A|---------------------------------------------------------|
E|---------------------------------------------------------|

Outro:
E|---------------------------------------------------------------------------------|
B|---------------------------------------------------------------------------------|
G|--12--17b19--19--19--19--19--19--19--19--19--------------------------------------|
D|------------------------------------------------------3--------3--------------3--|
A|------------------------------------------------3--5--------3-----5-----3--5-----|
E|---------------------------------------------5-----------5-----------5-----------|

E|-----------------------------------------14\0--|
B|-----------------------------------------------|
G|-----------------------------------------------|
D|--------3--------------------------------------|
A|-----3-----5-----------------------------------|
E|--5-----------5--5--5--5--5--5--5--5--0db------|

Order:
Intro
Verse
Chorus
Verse
Chorus
Solo
Chorus
Verse
Chorus
Outro

db = dive bomb
w = whammy
Tap to rate this tab
# A B C D E F G H I J K L M N O P Q R S T U V W X Y Z