Song name
# A B C D E F G H I J K L M N O P Q R S T U V W X Y Z

Misc Unsigned Bands - Dj Alvaro - Ang Tipo Kong Lalake tab

"ANG TIPO KONG LALAKE"

BY: DJ ALVARO

INTRO:plucking

E|--------------------------------------2---------------------------|
B|------2---------2----------------------2--------------------------|
G|----4--4------4--4-------------------3----------------------------|
D|---4-4--4----4-4--4---repeat5x------4-----------------------------|
A|--2--------------------then--------4------------------------------|
D|-----------0----------------------2-------------------------------|

Chords:

E : X799XX
B : 799XXX
F#: X91111XX
 
Intro: B-E-B-E-

            Chorus
  B             E
   Kahit hindi guwapo
  B          E
   Kahit na di matalino
  B                E
   Basta't siya'y may puso
           F#            B     E-B-E-
   Siya pa rin ay gugustuhin ko

  B           E
   Hindi kinakailangang
  B          E
   Masunurin sa magulang
  B              E
   Basta't siya'y magalang
  B        E
   At mapagkakatiwalaan

   (Repeat Chorus)

  B        E
   Umiinon man ng marami
  B         E           B
   Kahit na ba balde-balde
                   E
   Basta't hindi lasenggo
  B          E
   Umiinom pero di lasenggo

   (Repeat Chorus)

  B           E
   Manuntok man ng tao
  B          E              B
   Basta ba nasa katuwiran ito
            E
   Manapak man ng gago
  B              E
   Basta't hindi ba basugelero

   (Repeat Chorus)

Mini Adlib:

E|--12/13/12----------------12/13/12---------------------|
B|----------12-7-7/9-12-12-----------12-12-12/14-12------|
G|-------------------------------------------------------|
D|-------------------------------------------------------|
A|-------------------------------------------------------|
D|-------------------------------------------------------|

  B        E               B
   Ayaw ko sa sobrang maginoo
           E             B
   Dahil baka ako ay mabato
                   E    B
   Ang tipo kong lalaki
                   E    B
   Ang tipo kong lalaki
                   E              B
   Ang tipo kong lalaki medyo bastos
         E                B
   Maginoo pero medyo bastos
         E                B
   Maginoo pero medyo bastos
         E                B
   Maginoo pero medyo bastos
         E        break
   Maginoo pero medyo bastos

outro:

mini adlib:

E|-12/13/12--12-12/13-12-12-----------------------------------|
B|---------12-------------------------------------------------|
G|------------------------------------------------------------|
D|------------------------------------------------------------|
A|------------------------------------------------------------|
D|------------------------------------------------------------|


end...

aun tol request to ni ryan from qc.. 1hour ko to tinab tol..
sana tama xe minadali ko may pasok pa ako eh.. 
kung sino pa gusto magpatab sakin pki add sa fs ko comment nyo na lang 
ako dun tulad nang ginawa ni ryan.. tnx..

shinobi_hunter@yahoo.com

proud to me a member of ug!

IETI MARIKINA ROCKS.. rhecka18..
Tap to rate this tab
# A B C D E F G H I J K L M N O P Q R S T U V W X Y Z