Song name
# A B C D E F G H I J K L M N O P Q R S T U V W X Y Z

Misc Unsigned Bands - Dead Regret - Let Down tab

---------------------------------------------------------------------------
			     LET DOWN - Dead Regret
---------------------------------------------------------------------------
Tabbed by: Dead Regret
Email: dead.regret337@gmail.com

Tuning: Eb G# C# F# Bb eb

Intro/Chorus:
eb|------------------------------------------------------------------------|
Bb|------------------------------------------------------------------------|
Gb|------------------------------------------------------------------------|
Db|-7-7-7-7----------------------------------------------------------------|
Ab|-7-7-7-7-7-8-7-0-5-7-5-0-3-5-3-0----------------------------------------|
Eb|-5-5-5-5----------------------------------------------------------------|

Verse:
eb|------------------------------------------------------------------------|
Bb|------------------------------------------------------------------------|
Gb|------------------------------------------------------------------------|
Db|-7-7-7-7-7-7-7-7-10-10-10-10-10-10-10-10-5-5-5-5-5-5-5-5-8-8-8-8-8-8-8-8|
Ab|-7-7-7-7-7-7-7-7-10-10-10-10-10-10-10-10-5-5-5-5-5-5-5-5-8-8-8-8-8-8-8-8|
Eb|-5-5-5-5-5-5-5-5-8--8--8--8--8--8--8--8--3-3-3-3-3-3-3-3-6-6-6-6-6-6-6-6|

eb|------------------------------------------------------------------------|
Bb|------------------------------------------------------------------------|
Gb|------------------------------------------------------------------------|
Db|-7-7-7-7-7-7-7-7-10-10-10-10-10-10-10-10-5-5-5-5-5-5-5-5-8-8-8-8-8-8-8-8|
Ab|-7-7-7-7-7-7-7-7-10-10-10-10-10-10-10-10-5-5-5-5-5-5-5-5-8-8-8-8-8-8-8-8|
Eb|-5-5-5-5-5-5-5-5-8--8--8--8--8--8--8--8--3-3-3-3-3-3-3-3-6-6-6-6-6-6-6-6|

eb|------------------------------------------------------------------------|
Bb|------------------------------------------------------------------------|
Gb|------------------------------------------------------------------------|
Db|-7-7-7--7-7-7--10-10-10--10-10-10--5-5-5--5-5-5--8-8-8--8-8-8-----------|
Ab|-7-7-7--7-7-7--10-10-10--10-10-10--5-5-5--5-5-5--8-8-8--8-8-8-----------|
Eb|-5-5-5--5-5-5--8--8--8---8--8--8---3-3-3--3-3-3--6-6-6--6-6-6-----------|
    . .    . .    .  .      .  .      . .    . .    . .    . .             
eb|------------------------------------------------------------------------|
Bb|------------------------------------------------------------------------|
Gb|------------------------------------------------------------------------|
Db|-7-7-7--7-7-7--10-10-10--10-10-10--5-5-5--5-5-5--8-8-8--8-8-8-----------|
Ab|-7-7-7--7-7-7--10-10-10--10-10-10--5-5-5--5-5-5--8-8-8--8-8-8-----------|
Eb|-5-5-5--5-5-5--8--8--8---8--8--8---3-3-3--3-3-3--6-6-6--6-6-6-----------|
    . .    . .    .  .      .  .      . .    . .    . .    . .              
Outro:
eb|------------------|
Bb|------------------|
Gb|------------------|
Db|-7--7--7--7-7-7-7-|
Ab|-7--7--7--7-7-7-7-|
Eb|-5--5--5--5-5-5-5-|

Order:
Intro  x8
Verse  x2
Chorus x4
Verse  x2
Chorus x4
Outro  x1

Key:
| /  slide up
| \  slide down
| h  hammer-on
| p  pull-off
| ~  vibrato
| +  harmonic
| x  Mute note
| .  Palm Mute
============================================================================
Lyrics:

Intro (Gang Shout):
You've!
Let!
Us!
Down!

Verse 1:
You're pretentious and hateful too
The only thing we've learned from you
Is how to see through all the lies
And kill the things that we despise
All the lives you compromise
You totalize what you despise
Taking all the hate we fear
And questioning the things we hear

Chorus (Gang Shout):
You've!
Let!
Us!
Down!

Verse 2:
Your tyranny will never stand
Equality is in demand
You reject our right to life
Intolerance will end in strife
The lives you changed will never fit
Your ignorance is killing it
The deaths of all of your men
Is just the starting of the end

Chorus/Outro (Gang Shout):
You've!
Let!
Us!
Down!
You've Let Us Down!
Tap to rate this tab
# A B C D E F G H I J K L M N O P Q R S T U V W X Y Z