Song name
# A B C D E F G H I J K L M N O P Q R S T U V W X Y Z

Misc Unsigned Bands - The Summer Circuit - A House Into A Home tab

-----------------------------------------------------------------------------                      
A House Into A Home - The Summer Circuic
-----------------------------------------------------------------------------
Tabbed by: Brandon Adkins
Myspace.com/iwritelovenotes

This is by ear so it might be slightly wrong

(myspace.com/thesummercircuit)


Tuning: Standard

e|--------0--------------0--------------0--------------0--------------------|
B|----------1--------------1--------------1--------------1---1-----Intro----|
G|------------0--------------0--------------0--------------0---------&------|
D|------------------------------------------------3-3------------Interludes-|
A|---3-3------------2-2------------0-0--------------------------------------|
E|--------------------------------------------------------------------------|

      
e|-------------------------These are the chords-----------------------------|
B|----1---1---1---1------That are constantly being--------------------------|
G|------------2---2-----Played throughout the song--------------------------|
D|----2---2---2---3----It is a really easy to figure------------------------|
A|----3---2-------3-----out where to play them at---------------------------|
E|--------------------------------------------------------------------------|



e|-----------------Chords that are being played during----------------------|
B|--1~--1~------------------------------------------------------------------|
G|-----------------"Together we'll take on the world."----------------------|
D|--2~--2~-----------------------and----------------------------------------|
A|--3~--2~----------"We have the rest of our lives."------------------------|
E|--------------------------------------------------------------------------|





|
|
| /  slide up
| \  slide down
| h  hammer-on
| p  pull-off
| ~  vibrato
| +  harmonic
| x  Mute note
=============================================================================
Tap to rate this tab
 
# A B C D E F G H I J K L M N O P Q R S T U V W X Y Z