Song name
# A B C D E F G H I J K L M N O P Q R S T U V W X Y Z

Misc Unsigned Bands - Creeley Godwin - Hey Now Stay tab

Hey Now (Stay)

Gtrs tuned to (C# G# C# F# F# C#)


 Q=80

 4/4

 Intro
  Q  E. E S E E S S   Q  E. E S E E S S
|-0--0--0-0-0-0-0-0-|-0--0--0-0-0-0-0-0-|
|-2--2--2-2-1-1-1-1-|-4--4--4-4-0-0-0-0-|
|-2--2--2-2-1-1-1-1-|-4--4--4-4-0-0-0-0-|
|-0--0--0-0-0-0-0-0-|-0--0--0-0-0-0-0-0-|
|-0--0--0-0-0-0-0-0-|-0--0--0-0-5-5-5-5-|
|-------------------|-----------0-0-0-0-|


  Q  E. E S E E S S    S  S  S  E S  Q.    E  S  S
|-0--0--0-0-0-0-0-0-|--0--0--0--0--------------------|
|-2--2--2-2-1-1-1-1-|-12-12-12-12----9-----9--9--9---|
|-2--2--2-2-1-1-1-1-|-12-12-12-12---11----11-11-11---|
|-0--0--0-0-0-0-0-0-|--0--0--0--0-0--0-----0--0--0---|
|-0--0--0-0-0-0-0-0-|--0--0--0--0-0--0-----0--0--0---|
|-------------------|--------------------------------|


 Pre-Verse
  Q  E. E S E E S S   Q  E. E S E E S S
|-0--0--0-0-0-0-0-0-|-0--0--0-0-0-0-0-0-|
|-2--2--2-2-1-1-1-1-|-4--4--4-4-0-0-0-0-|
|-2--2--2-2-1-1-1-1-|-4--4--4-4-0-0-0-0-|
|-0--0--0-0-0-0-0-0-|-0--0--0-0-0-0-0-0-|
|-------------------|-----------5-5-5-5-|
|-3--3--3-3-2-2-2-2-|-5--5--5-5-0-0-0-0-|


  Q  E. E S E E S S    S  S  S  E S  Q.    E  S  S
|-0--0--0-0-0-0-0-0-|--0--0--0--0------------------|
|-2--2--2-2-1-1-1-1-|-12-12-12-12----9-----9--9--9-|
|-2--2--2-2-1-1-1-1-|-12-12-12-12---11----11-11-11-|
|-0--0--0-0-0-0-0-0-|--0--0--0--0-0--0-----0--0--0-|
|-------------------|-------------0--0-----0--0--0-|
|-3--3--3-3-2-2-2-2-|-12-12-12-12-0--0-----0--0--0-|


 Verse
  S S S S S S S S S S S S S S S S   S S S S S S  S  S  S  S  S  S  S  S  S  S
|-0-0-0-0-0-0-0-0-0-0-0-0-0-0-0-0-|-0-0-0-0-0-0--0--0--0--0--0--0--0--0--0--0-|
|-0-0-0-0-0-0-0-0-0-0-0-0-0-0-0-0-|-0-0-0-0-0-0--0--0--0--0--0--0--0--0--0--0-|
|-7-7-7-7-7-7-6-6-6-6-6-6-6-6-6-6-|-9-9-9-9-9-9-12-12-12-12-12-12-12-12-12-12-|
|---------------------------------|-------------------------------------------|
|-5-5-5-5-5-5-4-4-4-4-4-4-4-4-4-4-|-7-7-7-7-7-7-10-10-10-10-10-10-10-10-10-10-|
|-0-0-0-0-0-0-0-0-0-0-0-0-0-0-0-0-|-0-0-0-0-0-0--0--0--0--0--0--0--0--0--0--0-|


   S  S  S  S  S  S S S S S S S S S S S   S S S S S S S S S S S S S S S S
|--0--0--0--0--0--0-0-0-0-0-0-0-0-0-0-0-|-0-0-0-0-0-0-0-0-0-0-0-0-0-0-0-0-|
|--0--0--0--0--0--0-0-0-0-0-0-0-0-0-0-0-|-1-1-1-1-1-1-1-1-1-1-1-1-1-1-1-1-|
|-11-11-11-11-11-11-4-4-4-4-4-4-4-4-4-4-|-1-1-1-1-1-1-1-1-1-1-1-1-1-1-1-1-|
|---------------------------------------|-0-0-0-0-0-0-0-0-0-0-0-0-0-0-0-0-|
|--9--9--9--9--9--9-2-2-2-2-2-2-2-2-2-2-|---------------------------------|
|--0--0--0--0--0--0-0-0-0-0-0-0-0-0-0-0-|-2-2-2-2-2-2-2-2-2-2-2-2-2-2-2-2-|

Then Last time only (leading into Chorus), play

  S S S S S S S S S S S S S S S S
|-0-0-0-0-0-0-0-0-0-0-0-0-0-0-0-0-|
|-2-2-2-2-2-2-2-2-2-2-2-2-2-2-2-2-|
|-2-2-2-2-2-2-2-2-2-2-2-2-2-2-2-2-|
|-0-0-0-0-0-0-0-0-0-0-0-0-0-0-0-0-|
|---------------------------------|
|-3-3-3-3-3-3-3-3-3-3-3-3-3-3-3-3-|


 Pre-Chorus (Played only once)
  Q  E. S S E. Q     S  E  S  E E +Q.   S S
|-0--0--0-0-0--0--|--0--0--0--0-0-(0)---0-0-|
|-7--7--7-7S9--9--|-12-11-11-11-4-(4)---4-4-|
|-7--7--7-7S9--9--|-12-11-11-11-4-(4)---4-4-|
|-0--0--0-0-0--0--|--0--0--0--0-0-(0)---0-0-|
|-0--0--0-0-0--0--|--0--0--0--0-0-(0)---0-0-|
|-----------------|-------------------------|


  Q  E. E S E E S S   E. S S S E. S E E S S
|-0--0--0-0-0-0-0-0-|------------------------|
|-1--1--1-2-2-2-2-2-|-5--7-5p0-4--4-4-4-4-4--|
|-1--1--1-2-2-2-2-2-|-5--7-5p0-4--4-4-4-4-4--|
|-0--0--0-0-0-0-0-0-|-0--0-0---0--0-0-0-0-0--|
|-0--0--0-0-0-0-0-0-|-0--0-0---0--0-0-0-0-0--|
|-------------------|------------------------|


 Chorus
  Q  E. E  S  E  E  S  S    S  E  S  E E. S E E S S
|-0--0--0--0--0--0--0--0-|--0--0--0--0-0--0-0-0-0-0-|
|-7--7--7--9--9--9--9--9-|-12-11-11-11-4--4-4-4-4-4-|
|-7--7--7--9--9--9--9--9-|-12-11-11-11-4--4-4-4-4-4-|
|-0--0--0--0--0--0--0--0-|--0--0--0--0-0--0-0-0-0-0-|
|------------------------|--------------------------|
|-8--8--8-10-10-10-10-10-|-12-12-12-12-5--5-5-5-5-5-|


  Q  E. E S E E S S   E. S S S E. S E E S S
|-0--0--0-0-0-0-0-0-|-----------------------|
|-1--1--1-2-2-2-2-2-|-5--7-5p0-4--4-4-4-4-4-|
|-1--1--1-2-2-2-2-2-|-5--7-5p0-4--4-4-4-4-4-|
|-0--0--0-0-0-0-0-0-|-0--0-0---0--0-0-0-0-0-|
|-------------------|-----------------------|
|-2--2--2-3-3-3-3-3-|-5--5-5---5--5-5-5-5-5-|


2nd Chorus and 3rd Chorus, play this at the end
  E. S S S E. S E E S S
|--------------------------|
|-5--7-5p0-4--4-4-4-4-4----|
|-5--7-5p0-4--4-4-4-4-4----|
|-0--0-0---0--0-0-0-0-0----|
|--------------------------|
|-3--3-3---2--2-2-2-2-2----|


Synth Solo - Guitars play same as Pre-Verse


Outro - You play this over and over and over. The bass and other guitar take care of the 
of the melody.

   S  S  S  E S  E.  S  E  E  S  S    S  S  S  E S  E.  S  E  E  S  S
|--0--0--0--0-----------0-----0--0-|--0--0--0--0-----------0-----0--0-*|
|-12-12-12-12----9---9--9--9--9--9-|-12-12-12-12----9---9--9--9--9--9-*|
|-12-12-12-12---11--11-11-11-11-11-|-12-12-12-12---11--11-11-11-11-11-*|
|--0--0--0--0-0--0---0--0--0--0--0-|--0--0--0--0-0--0---0--0--0--0--0-*|
|--0--0--0--0-0--0---0--0--0--0--0-|--0--0--0--0-0--0---0--0--0--0--0-*|
|----------------------------------|----------------------------------*|
Tap to rate this tab
# A B C D E F G H I J K L M N O P Q R S T U V W X Y Z