Song name
# A B C D E F G H I J K L M N O P Q R S T U V W X Y Z

Misc Unsigned Bands - J Netts - This Is For You tab

-------------------------------------------------------------------|
-------------------------------------------------------------------|
-----8--------------6--------------1-------------------------------|
------------9--------------7--------------2---------5---------7----|
----------9--------------7--------------2---------5---------7------|
--7----7---------5----5---------0----0---------3---------5---------|

--------------------------------------------------------------------|
--------------------------------------------------------------------|
-----8--------------6--------------1--------------------------------|
------------9--------------7--------------2----5-------5--7-------7-|
----------9--------------7--------------2-----------5----------7----|
--7----7---------5----5---------0----0------------3----------5------|

-------------------------------------------------------------------|
-------------------------------------------------------------------|
-----8--------------6--------------1-------------------------------|
------------9--------------7--------------2---------5---------7----|
----------9--------------7--------------2---------5---------7------|
--7----7---------5----5---------0----0---------3---------5---------|

--------------------------------------------------------------------|
--------------------------------------------------------------------|
-----8--------------6--------------1--------------------------------|
------------9--------------7--------------2----5-------5--7-------7-|
----------9--------------7--------------2-----------5----------7----|
--7----7---------5----5---------0----0------------3----------5------|

-------------------------------------------------------------------|
-------------------------------------------------------------------|
-----8--------------6--------------1-------------------------------|
------------9--------------7--------------2---------5---------7----|
----------9--------------7--------------2---------5---------7------|
--7----7---------5----5---------0----0---------3---------5---------|

-----------------------------------|
-----------------------------------|
-----8--------------6-----------1--|
------------9--------------7----2--|
----------9--------------7------2--|
--7----7---------5----5---------0--|

--------------------------------------------------------------|
--------------------------------------------------------------|
-----8-----------8-------6-----------6-------1-----------1----|
------------9------9------------7------7------------2------2--|
----------9-------------------7-------------------2-----------|
--7----7-------7------5----5-------5------0----0-------0------|

------------------|
------------------|
------------------|
-------5-------7--|
-----5-------7----|
--3-------5-------|

--------------------------------------------------------------|
--------------------------------------------------------------|
-----8-----------8-------6-----------6-------1-----------1----|
------------9------9------------7------7------------2------2--|
----------9-------------------7-------------------2-----------|
--7----7-------7------5----5-------5------0----0-------0------|

------------------------|
------------------------|
------------------------|
--5-------5--7-------7--|
-------5----------7-----|
-----3----------5-------|

-------------------------------------------------------------------|
-------------------------------------------------------------------|
-----8--------------6--------------1-------------------------------|
------------9--------------7--------------2---------5---------7----|
----------9--------------7--------------2---------5---------7------|
--7----7---------5----5---------0----0---------3---------5---------|

--------------------------------------------------------------------|
--------------------------------------------------------------------|
-----8--------------6--------------1--------------------------------|
------------9--------------7--------------2----5-------5--7-------7-|
----------9--------------7--------------2-----------5----------7----|
--7----7---------5----5---------0----0------------3----------5------|

-------------------------------------------------------------------|
-------------------------------------------------------------------|
-----8--------------6--------------1-------------------------------|
------------9--------------7--------------2---------5---------7----|
----------9--------------7--------------2---------5---------7------|
--7----7---------5----5---------0----0---------3---------5---------|

-----------------------------------|
-----------------------------------|
-----8--------------6-----------1--|
------------9--------------7----2--|
----------9--------------7------2--|
--7----7---------5----5---------0--|
Tap to rate this tab
 
# A B C D E F G H I J K L M N O P Q R S T U V W X Y Z