Song name
# A B C D E F G H I J K L M N O P Q R S T U V W X Y Z

Misc Unsigned Bands - Every Mothers Son - Come On Down To My Boat chords

Highlighted       Show chord diagrams
Come On Down To My Boat Baby:Every Mother's Son.
#2 in 1967.
            (Capo 1st fret.)
Riff#1.
--------------------------|
--------------------------|
------0--2-0----------0-2-|
--2-2--------2--0--2-2----|
--------------------------|
--------------------------|

Riff#2.
------------------------|
------------------------|
-------0-2-0------------|
--2-2----------2--0-----| into E Chord //////
------------------------|
------------------------|
#1.
A
She sits on the dock a fishin'

in the water uh, huh..(Riff #1.)
A
I don't know her name she's the

fisherman's daughter uh, huh..(Riff #2.)E//////

CHORUS:
A       E       D       A
Come on down to my boat baby.
A       E          D      A
Come on down where we can play.
A       E       D       A
Come on down to my boat baby.
A       E          D     A
Come on down we'll sail away.

BREAK:
-------------------------------------------------------------|
----------0-2-0---------2--------------0-2-0--------2--------|
------0-2-------------0------------0-2------------0----------| (x1)
--2-2------------2-2----------2-2-------------2-2------------|
-------------------------------------------------------------|
-------------------------------------------------------------|

--------------------------|
--------------------------|
------0--2-0----------0-2-| (X2)
--2-2--------2--0--2-2----|
--------------------------|
--------------------------|

#2.
A
She smiled so nice like she wants

to come with me uh, huh..(Riff #1.)

But she's tied to the dock and she

can't get free.(Riff #2.) E//////

CHORUS:
A       E       D       A
Come on down to my boat baby.
A       E          D      A
Come on down where we can play.
A       E       D       A
Come on down to my boat baby.
A       E          D     A
Come on down we'll sail away.

#3.
D        A    E         A
Fish all day, sleep all night.
D            A        E          A
Father never lets her out of his sight.
A
Soon, I'm gonna have to get my knife
                   D        A
and cut that rope..cut that rope.
     E
Then we can go fishin' in my little red boat..
E7                                    E
Make you happy in my little red boat..So...

CHORUS:
A       E       D       A
Come on down to my boat baby.
A       E          D      A
Come on down where we can play.
A       E       D       A
Come on down to my boat baby.
A       E          D     A
Come on down we'll sail away.

OUTRO:
A       E       D       E
Come on down to my boat baby.
A       E          D      E
Come on down where we can play.
A       E       D       E
Come on down to my boat baby.
A       E          D     E
Come on down we'll sail away.

A E D E...A E D 
(Fade.)


A sixties smash from Kraziekhat.
Tap to rate this tab
 
# A B C D E F G H I J K L M N O P Q R S T U V W X Y Z