Song name
# A B C D E F G H I J K L M N O P Q R S T U V W X Y Z

Misc Unsigned Bands - Pachypodium Collapse - Optimus Potato tab

Questions? e-mail me at vincent95@live.com


Song:Optimus Potato
Band:Pachypodium Collapse

       Intro/Main Riff
 e|---------------|--------------------------------------------------|
 B|---------------|--------------------------------------------------|
g |---------------|--------------------------------------------------|
 d|--------------|-------------------------------7-------------------|
 a|-----7-8-5-----|-7h8p7------5h7p5--------------7------------------|
 E|---5-----------|-------8----------8-----7h8p7--5------------------|

      Verse                                  | 3x |
 e|---------------------|-----|----------------------------|
 B|---------------------|-----|----------------------------|
 g|--4--2--4---5-5--2-4-|-4-2-|-4--2--4--------------------|
 d|--4--2--4---5-5--2-4-|-4-2-|-4--2--4--5--5--2--3--------|
 a|--2--0--2---3-3--0-2- |-2-0-|-2--0--2--5--5--2--3-------|
 E|---------------------|-----|----------3--3--0--1--------|

     Chorus                                                      3x                      
                   2x
e|---------------------------------|----------------------|---|
B|---------------------------------|----------------------|---|
g|---------------------------------|----------------------|---|
d|---------7------6----------------|--7p6-----------------|---|
a|-8-5-8-5----8-5-----7h8----5------|-----7h8-5-----------|---|
E|------------------------5----7h8-3|-------------5-8-3-7-|-5-|
    p.m-----|      p.m.|           .
     Solo
e|-------------------/5~3--2-|-5/7--5-5--7/9-7|-9-7-5-7-5-4-5-4------|
B|-/7~~5---5-5h7----------5--|-------7--------|----------------------|
g|-------7------4------------|----------------|----------------------|
d|---------------------------|----------------|------------------2---|
a|---------------------------|----------------|------------------4---|
E|---------------------------|----------------|------------------2---|
                                   2x
e|-----------------|-------------------|
B|-----------------|-------------------|
g|----6-----6----6-|-----5------5----5-|
d|---4-4---4-4---4-|---4--4---4--4---4-|
a|--7---7-7---7--7-|--7----7-7----7--7-|
E|-5-----5-------5-|-5------5--------5-|
 p.m-----------------------------------|
Tap to rate this tab
 
# A B C D E F G H I J K L M N O P Q R S T U V W X Y Z