Song name
# A B C D E F G H I J K L M N O P Q R S T U V W X Y Z

Misc Unsigned Bands - Methadones - Say Goodbye To Your Generation tab

                                    The Methadones
                             Say Goodbye To your Generation









Symbol Legend:
_______________
Duration Legend
---------------
W - whole
H - half
Q - quarter
E - 8th
S - 16th
T - 32nd
X - 64th
. - note dotted
|-n-|  - n-tuplets


Tablature Legend
----------------
L - tied note
x - dead note
g - grace note
(n) - ghost note
> - accentuded note
NH - natural harmonic
AH - artificial harmonic
TH - tapped harmonic
SH - semi harmonic
PH - pitch harmonic
h - hammer on
p - pull off
b - bend
br - bendRelease
pb - preBend
pbr - preBendRelease
brb - bendReleaseBend
\n/ - tremolo bar dip
\n - tremolo bar dive
-/n - tremolo bar Release up
/n\ - tremolo bar inverted dip
/n - tremolo bar return
-\n - tremolo bar Release down
S - shift slide
s - legato slide
/ -  slide into from below or out of upwards
\ -  slide into from above or out of downwards
~ - vibrato
W - wide vibrato
tr - trill
TP - tremolo picking
T - tapping
S - slap
P - pop
< - fade in
^ - brush up
v - brush down

                                 Solo
                                            x2

E||9-101010-9-101010-9-101010-1010---|3p2p0-------------------|
B||9-101010-9-101010-9-101010-1010---|-----3p2p0--------------|
G||----------------------------------|----------3p2p0---------|
D||----------------------------------|---------------3p2p0----|
A||----------------------------------|------------------------|
E||----------------------------------|------------------------|

E||9-101010-9-101010-9-101010----|3p2p0-----3p2p0-----3p2-3s-5--------|
B||9-101010-9-101010-9-101010----|-----3p2p0-----3p2p0----------------|
G||------------------------------|------------------------------------|
D||------------------------------|------------------------------------|
A||------------------------------|------------------------------------|
E||------------------------------|------------------------------------|

E||101010-12b-10---10---10---10-101010-12b-10---10-----------------|
B||-------------13b--13b--13b-----------------12b----10---10---10--|
G||------------------------------------------------12b-12b--12b----|
D||----------------------------------------------------------------|
A||----------------------------------------------------------------|
E||----------------------------------------------------------------|

E||101010-12b-10---10--------------------------------------|
B||-------------13b-----10---10---10-----------------------|
G||------------------12b--12b--12b--12b--------------------|
D||-------------------------------------13~~~~~--//////////|
A||----------------------------------------------//////////|
E||--------------------------------------------------------|
Tap to rate this tab
# A B C D E F G H I J K L M N O P Q R S T U V W X Y Z