Song name
# A B C D E F G H I J K L M N O P Q R S T U V W X Y Z

Misc Unsigned Bands - Josh Lafever - Love Me tab

-------------------------------------------------------------------------------
			     LOVE ME - Josh LaFever
-------------------------------------------------------------------------------
Tabbed by: Josh LaFever
Email:joshtheross@hotmail.com

By the way, everyone. This is NOT a serious song! I randomly wrote it one night TRYING 
make it a very stupid song. Enjoy.

Tuning:Standard Tuning

Intro: (Repeat continually through the duration of intro)

e|---------------------------------------------------------------------------|
B|-----------1---------------------1-----------------------------------------|
G|-------0------0----0---------2-----2---2-----------------------------------|
D|-----2---2------2---------2----2-----2-------------------------------------|
A|---3-------------------0---------------------------------------------------|
E|---------------------------------------------------------------------------|

Intro Lyrics:

I knew how you felt for me before.

You said that you loved me, and you wanted nothing more.

But last night, you said, you didn't love me, anymore.

I don't see, why you can't love, me, why you can't love me, anymore.

Verse 1:

 C                  Am          C       Am
Why don't you love me, anymore, anymore?

                C          Am      D                            G   F   E
Why don't you love me, anymore, anymore, any mo- o -ore?

Chorus 1:

 G            F         G
I'm still in love with you.

 G             F       G
Why don't you love me too?

 G             F        G
I'm still in love with you!

G F G

Verse 2:


   C        Am           C         Am
I said you were my number one, number one.
  C         Am          C         Am            C    Am
Then came along other girl, number one, number one.
  C        Am        C         Am
Then you were number 2, number 2.
      C         Am            C        Am
I'm sorry, but I'm still in love with you.

D G F E

Chorus 2:

 G             F         G
I'm still in love with you.

 G            F      G
Give me chance 32.

 G              F        G
I'm still in love with you!

G F G

Bridge:

C Am C Am C Am C Am
D G F E
G F G
G F G
G F G
G F G

Outro:

e|---------------------------------------------------------------------------|
B|-----------1---------------------1-----------------------------------------|
G|-------0------0----0---------2-----2---2-----------------------------------|
D|-----2---2------2---------2----2-----2-------------------------------------|
A|---3-------------------0---------------------------------------------------|
E|---------------------------------------------------------------------------|

Outro Lyrics: Why don't you love me, anymore, anymore? Anymore, anymore, anymore, etc...

End:- (Fade out or suddendly stop.)

C    Am  C    Am   C     Am   C     Am
Love Me Love Me Love Me Love Me


| /  slide up
| \  slide down
| h  hammer-on
| p  pull-off
| ~  vibrato
| +  harmonic
| x  Mute note
===============================================================================
Tap to rate this tab
 
# A B C D E F G H I J K L M N O P Q R S T U V W X Y Z