Song name
# A B C D E F G H I J K L M N O P Q R S T U V W X Y Z

Misc Unsigned Bands - Dead Regret - Take Control tab

----------------------------------------------------------------------------
			     Take Control - Dead Regret
----------------------------------------------------------------------------
Tabbed by: Jon Kopatich
Email: dead.regret337@gmail.com

Tuning: Eb G# C# F# Bb eb

Intro/Verse:
eb|------------------------------------------------------------------------|
Bb|------------------------------------------------------------------------|
Gb|----------------7--7-7--7-7-7-------------------------------------------|
Db|-5--5-5--5-5-5--7--7-7--7-7-7--3--3-3--3-3-3--7--7-7--7-7-7-------------|
Ab|-5--5-5--5-5-5--5--5-5--5-5-5--3--3-3--3-3-3--7--7-7--7-7-7-------------|
Eb|-3--3-3--3-3-3-----------------1--1-1--1-1-1--5--5-5--5-5-5-------------|

Chorus/Outro:
eb|------------------------------------------------------------------------|
Bb|------------------------------------------------------------------------|
Gb|------------------------------------------------------------------------|
Db|-9--9-9--9-9-9--7--7-7--7-7-7--5--5-5--5-5-5--2--2-2--2-2-2-------------|
Ab|-9--9-9--9-9-9--7--7-7--7-7-7--5--5-5--5-5-5--2--2-2--2-2-2-------------|
Eb|-7--7-7--7-7-7--5--5-5--5-5-5--3--3-3--3-3-3--0--0-0--0-0-0-------------|

eb|------------------------------------------------------------------------|
Bb|------------------------------------------------------------------------|
Gb|------------------------------------------------------------------------|
Db|-9--9-9--9-9-9--7--7-7--7-7-7--5--5-5--5-5-5--9-9-9-9-9-9-9-9-----------|
Ab|-9--9-9--9-9-9--7--7-7--7-7-7--5--5-5--5-5-5--7-7-7-7-7-7-7-7-----------|
Eb|-7--7-7--7-7-7--5--5-5--5-5-5--3--3-3--3-3-3----------------------------|

Order:
Intro  x2
Verse  x2
Chorus x2
Intro  x2
Verse  x2
Chorus x2
Outro  x2

Key:
| /  slide up
| \  slide down
| h  hammer-on
| p  pull-off
| ~  vibrato
| +  harmonic
| x  Mute note
| .  Palm mute
============================================================================
Lyrics:

Verse 1:
Take who you are and throw it away
Change what you do and change what you say
Wear what they want and talk like they do
Pass all their tests and be used as their tool

Chorus (Gang Shout):
Take back
Your life
Fight for
Your right
Die for
No one
Become
Someone

Verse 2:
Do what you want, fuck their standards
Be who you are, no one else matters
Be the master, not the slave
Then give up the power and dig your own grave

Chorus (Gang Shout):
Take back
Your life
Fight for
Your right
Die for
No one
Become
Someone

Outro:
Become! Someone!
Become! Someone!
Become! Someone!
Be! Someone!
Tap to rate this tab
# A B C D E F G H I J K L M N O P Q R S T U V W X Y Z