Song name
# A B C D E F G H I J K L M N O P Q R S T U V W X Y Z

Misc Unsigned Bands - Breaking Twilight - Interlude tab

I wrote this song, this is my first tab, its mostly sweeps but there not to fast so you 
pick it if you want. This is perfect for someone who's trying to improve there sweeping.

Effects:Phaser(slow),Delay(moderately fast),Reverb

h=hammer on
p=pull off
t=tap
/=slide
~=let ring
.=palm mute

D|----------------13-17------------------------7-11----------|
A|-------------15-------15-------------------9------9--------|
F|----------14-------------14--------------8----------8------|
C|-------15-------------------15---------9--------------9----|
A|-12-17-------------------------17-7-10------------------10-|
C|-----------------------------------------------------------|

D|---------------9-13-----------------------5-9---------|
A|------------11------11------------------7-----7-------|
F|---------10------------10-------------6---------6-----|
C|------11------------------11--------7-------------7---|   X2
A|-9-12------------------------12-5-9-----------------9-|
C|------------------------------------------------------|


D|----------------13-17-------------------------15h19t22p19p15----------|
A|-------------15-------15-------------------17---------------17--------|
F|----------14-------------14-------------16--------------------16------|
C|-------15-------------------15-------17-------------------------17----| X4
A|-12-17-------------------------17/19-------------------------------19-|
C|----------------------------------------------------------------------|

the 4th time end the tapping like so
D|-15h19t22p19p15/14~-|
A|--------------------|
F|--------------------|
C|--------------------|
A|--------------------|
C|--------------------|

D|-------13---13-------13-------13-----13----13----|
A|-------17---17-------17-------17--------17----17-|
F|-------------------------------------------------|
C|-------------------------------------------------|
A|-0-0-0----0----0-0-0----0-0-0----0-0-------------|
C|-0-0-0----0----0-0-0----0-0-0----0-0-------------|
   . . .    .    . . .    . . .    . .

D|-------13---13-------13-------13-----15----15----|
A|-------17---17-------17-------17--------19----19-|
F|-------------------------------------------------|
C|-------------------------------------------------|
A|-0-0-0----0----0-0-0----0-0-0----0-0-------------|
C|-0-0-0----0----0-0-0----0-0-0----0-0-------------|
   . . .    .    . . .    . . .    . .

D|-------13---13-------13-------13-----13----13----|
A|-------17---17-------17-------17--------17----17-|
F|-------------------------------------------------|
C|-------------------------------------------------|
A|-0-0-0----0----0-0-0----0-0-0----0-0-------------|
C|-0-0-0----0----0-0-0----0-0-0----0-0-------------|
   . . .    .    . . .    . . .    . .

D|-------13---13-------13-------13-----17----17----|
A|-------17---17-------17-------17--------21----21-|
F|-------------------------------------------------|
C|-------------------------------------------------|
A|-0-0-0----0----0-0-0----0-0-0----0-0-------------|
C|-0-0-0----0----0-0-0----0-0-0----0-0-------------|
   . . .    .    . . .    . . .    . .


D|-----------5-9-------------------4-8---------|
A|---------7-----7---------------6-----6-------|
F|-------6---------6-----------5---------5-----|
C|-----7-------------7-------6-------------6---|   X2
A|-5-9-----------------9-4-8-----------------8-|
C|---------------------------------------------|

D|----------------17-21----------------------------15-20-------------|
A|-------------19-------19----------------------17-------17----------|
F|----------18-------------18----------------16-------------16-------|
C|-------19-------------------19----------17-------------------17----|   X2
A|-17-21-------------------------21-15-19-------------------------19-|
C|-------------------------------------------------------------------|

D|----------------13-17------------------------7-11----------|
A|-------------15-------15-------------------9------9--------|
F|----------14-------------14--------------8----------8------|
C|-------15-------------------15---------9--------------9----|
A|-12-17-------------------------17-7-10------------------10-|
C|-----------------------------------------------------------|

D|---------------9-13-----------------------5-9---------|
A|------------11------11------------------7-----7-------|
F|---------10------------10-------------6---------6-----|
C|------11------------------11--------7-------------7---|   X2
A|-9-12------------------------12-5-9-----------------9-|
C|------------------------------------------------------|

D|-----------5-9-------------------4-8---------|
A|---------7-----7---------------6-----6-------|
F|-------6---------6-----------5---------5-----|
C|-----7-------------7-------6-------------6---|   X2
A|-5-9-----------------9-4-8-----------------8-|
C|---------------------------------------------|

D|---------5h9t14p9p5t13p9p5---------4h8t12p8p4t13p8p4-|
A|-------7-------------------------6-------------------|
F|-----6-------------------------5---------------------|
C|---7-------------------------6-----------------------|   X2
A|-9-------------------------8-------------------------|
C|-----------------------------------------------------|

D|-----------5-9~-8p4-----------------------5-9~-8p4-----------|
A|---------7----------6-------------------7----------6---------|
F|-------6--------------5---------------6--------------5-------|
C|-----7------------------6-----------7------------------6-----|
A|-5-9----------------------8-4---5-9----------------------8-4-|
C|-------------------------------------------------------------|


Tabbed by:Taylr Meyer
www.myspace.com/a_blacker_abyss
Tap to rate this tab
 
# A B C D E F G H I J K L M N O P Q R S T U V W X Y Z