Song name
# A B C D E F G H I J K L M N O P Q R S T U V W X Y Z

Misc Unsigned Bands - A Simple Auld Salad - Tim And His Cows chords

Highlighted       Show chord diagrams
simple enough, this song is played with a phaser and some wah 

verse:
      D     G     C    A
E||---2-----3-----0----0-------------------||
B||---3-----3-----1----2-------------------||
G||*--2-----0-----0----2---------------*---||
D||*--------0-----2----2---------------*---||
A||---------2-----3------------------------||
E||---------3------------------------------||


chorus:

     E   D    G    C
E||------2----3----0---------------------||
B||------3----3----1---------------------||
G||*-----2----0----0-----------------*---||
D||*-2--------0----2-----------------*---||
A||--2--------2----3---------------------||
E||--0--------3--------------------------||



outro:

     E    D
E||-------2--------------------||
B||-------3--------------------||
G||*------3----------------*---||
D||*-2---------------------*---||
A||--2-------------------------||
E||--0-------------------------||

repeat and fade out.
Tap to rate this tab
# A B C D E F G H I J K L M N O P Q R S T U V W X Y Z