Song name
# A B C D E F G H I J K L M N O P Q R S T U V W X Y Z

Misc Unsigned Bands - A Simple Auld Salad - Ah Booga Booga tab

intro/verse riff
(play this twice for every verse)

E||-------------------------------------------||
B||-------------------------------------------||
G||*-----------------------------------5-----*||
D||*--------5-------7-------5-------5h7------*||
A||----7-------7-------7-------7--------------||
E||--00-0-00-00-0-00-00-0-00-00-0-00----------||

(when playing this the second time round end with: 
E||------||
B||------||
G||*--9-*||
D||*--9-*||
A||---7--||
E||------|| and go straight into the chorus)


chorus chords:

E||-----------------------------------------||
B||-----------------------------------------||
G||*--9---9---9--6-7-8---------------------*||
D||*--9---9---9--6-7-8---------------------*||
A||---7---7---7--4-5-6----------------------||
E||-----------------------------------------||

outro riff:
E||-------------------------------------------------||
B||-------------------------------------------------||
G||*-----------------------------------------------*||
D||*-------14-14-15-15-14-14-10-10-9-9-12-10-9-----*||
A||--12-12-------------------------------------10---||
E||-------------------------------------------------||



Tap to rate this tab
# A B C D E F G H I J K L M N O P Q R S T U V W X Y Z