Song name
# A B C D E F G H I J K L M N O P Q R S T U V W X Y Z

Misc Unsigned Bands - Tears Pay Someday - Baby tab

This is our first song..it's called "Baby" by the Tears Pay Someday.

Tears Pay Someday:

Vocals  - Benson
Lead    - Christoph
Rhythm  - Ben
Drummer - Anjo
Bass    - Shaun
Manager - Hope


Intro/Verse:

      G        Dsus     Em/G    C2
E-----3--------------------------------------------------------------------|
A--------------0--------2--------3-----------------------------------------|
D--------------------------------------------------------------------------|
G------0-0------2-2-------0-0-----0-0--------------------------------------|
B-------3--------3---------2-------2---------------------------------------|
E--------------------------------------------------------------------------|

I've been to many places.....will never fade away.

Chorus:

 
    G      Dsus     Em/G    C2
E---3--------0-------0-------0---------------------------------------------|
A---2--------0-------2-------3---------------------------------------------|
D---x--------0-------2-------2---------------------------------------------|
G---x--------2-------0-------0---------------------------------------------|
B---3--------3-------3-------3---------------------------------------------|
E---3--------3-------3-------3---------------------------------------------|

I love you...........would be enough for me.


Verse:
      G       Dsus      Em/G     C2
E-----3--------------------------------------------------------------------|
A--------------0--------2--------3-----------------------------------------|
D--------------------------------------------------------------------------|
G------0-0------2-2-------0-0-----0-0--------------------------------------|
B-------3--------3---------2-------2---------------------------------------|
E--------------------------------------------------------------------------|

When you're not around.........it's you i wanna see,ohh..



Chorus:

 
    G      Dsus     Em/G    C2
E---3--------0-------0-------0---------------------------------------------|
A---2--------0-------2-------3---------------------------------------------|
D---x--------0-------2-------2---------------------------------------------|
G---x--------2-------0-------0---------------------------------------------|
B---3--------3-------3-------3---------------------------------------------|
E---3--------3-------3-------3---------------------------------------------|

I love you...........would be enough for me.


   G      Dsus     Em/G    C2    
E---3--------0-------0-------0---------------------------------------------|
A---2--------0-------2-------3---------------------------------------------|
D---x--------0-------2-------2---------------------------------------------|
G---x--------2-------0-------0---------------------------------------------|
B---3--------3-------3-------3---------------------------------------------|
E---3--------3-------3-------3---------------------------------------------|

I love you...........hope you'd feel the same for me.



Lyrics:

Baby
Tears Pay Someday

Verse 1:

I've been to many places
Smoking cigarettes, yeah
Oh Baby, hope you'd understand me
Coz my love for you, will never fade away

Chorus:

I love you, forever I'll always do
Baby, you're my everything
I miss you, wish you were here with me
Baby, a kiss would be enough for me

Verse 2:

When you're not around, I smoke and drink and want to say
Baby, why aren't you here with me
Without you, I just don't know what to do
Baby, it's you I wanna see, ohh

Chorus:

I love you, forever I'll always do
Baby, you're my everything
I miss you, wish you were here with me
Baby, a kiss would be enough for me

I love you, forever I'll always do
Baby, you're my everything
I miss you, wish you were here with me
Baby, hope you'd feel the same for me
Tap to rate this tab
 
# A B C D E F G H I J K L M N O P Q R S T U V W X Y Z