Song name
# A B C D E F G H I J K L M N O P Q R S T U V W X Y Z

Misc Unsigned Bands - I Fight Dragons - With You tab

I Fight Dragons  With You

     C                                  Am
e|---------3--0--------------3--0------------3--0------------3--0----|
B|------1--1----3-1-------1--1----3--1-----1-1-----3-1-----1-1----3-1|
G|------0---------------0------------------2---------------2---------|
D|----2---------------2------------------2---------------2-----------|
A|--3---------------3------------------0---------------0-------------|
E|-------------------------------------------------------------------|

   Em              F               C
|-----------------------1---------------3--0------------3--0------|
|-------3--0------------1--1----------1-1----3-1------1-1----3-1--|
|-----0-0--0--0-------2-2--2-2--------0---------------0-----------|
|---2---------------3---------------2---------------2-------------|
|-2---------------3---------------3---------------3---------------|
|-----------------------------------------------------------------|  x3 


   C                                  Am
|--------3--0--------------3--0------------3--0------------3--0----|
|-----1--1----3-1-------1--1----3--1-----1-1-----3-1-----1-1----3-1|
|-----0---------------0------------------2---------------2---------|
|---2---------------2------------------2---------------2-----------|
|-3---------------3------------------0---------------0-------------|
|------------------------------------------------------------------|

   Em              F               Am               G
|-----------------------1---------------3--0-------3-----|
|-------3--0------------1--1----------1-1----3-1---3-----|
|-----0-0--0--0-------2-2--2-2--------2------------0-----|
|---2---------------3---------------2--------------0-----|
|-2---------------3---------------0----------------2-----|
|--------------------------------------------------3-----| 

Chorus:
Simply follow these chords 

F     G           C    Am      G
Maybe we will be everything we say
F     G            C         Am      G
Maybe all that we dream will fade to gray
F                  G
Either Way I will stay with you

     C                                  Am
|---------3--0--------------3--0------------3--0------------3--0----|
|------1--1----3-1-------1--1----3--1-----1-1-----3-1-----1-1----3-1|
|------0---------------0------------------2---------------2---------|
|----2---------------2------------------2---------------2-----------|
|--3---------------3------------------0---------------0-------------|
|-------------------------------------------------------------------|

   Em              F               C
|-----------------------1---------------3--0------------3--0------|
|-------3--0------------1--1----------1-1----3-1------1-1----3-1--|
|-----0-0--0--0-------2-2--2-2--------0---------------0-----------|
|---2---------------3---------------2---------------2-------------|
|-2---------------3---------------3---------------3---------------|
|-----------------------------------------------------------------| x2

   C                                  Am
|--------3--0--------------3--0------------3--0------------3--0----|
|-----1--1----3-1-------1--1----3--1-----1-1-----3-1-----1-1----3-1|
|-----0---------------0------------------2---------------2---------|
|---2---------------2------------------2---------------2-----------|
|-3---------------3------------------0---------------0-------------|
|------------------------------------------------------------------|

   Em              F               Am               G
|-----------------------1---------------3--0-------3-----|
|-------3--0------------1--1----------1-1----3-1---3-----|
|-----0-0--0--0-------2-2--2-2--------2------------0-----|
|---2---------------3---------------2--------------0-----|
|-2---------------3---------------0----------------2-----|
|--------------------------------------------------3-----|


Chorus 2:

F     G           C    Am      G
Maybe we will be everything we say
F     G            C         Am      G
Maybe all that we dream will fade to gray
F                  G        C    Am    F   G
Either Way I will stay with yo---------u
     C    Am    F   G
With y----------u
     C    Am    F   G
With yo---------u



   C                              Am     G
|-------3--0-----------3--0------0------3-----|
|-----1-1----3-1-----1-1----3-1--1------3-----|
|-----0--------------0-----------2------0-----|
|---2--------------2-------------2------0-----|
|-3--------------3---------------0------2-----|
|---------------------------------------3-----|



F     G           C    Am      G
Maybe we will be everything we say
F     G            C         Am      G
Maybe all that we dream will fade to gray
F                  G
Either Way I will stay with you

     C                                  Am
|---------3--0--------------3--0------------3--0------------3--0----|
|------1--1----3-1-------1--1----3--1-----1-1-----3-1-----1-1----3-1|
|------0---------------0------------------2---------------2---------|
|----2---------------2------------------2---------------2-----------|
|--3---------------3------------------0---------------0-------------|
|-------------------------------------------------------------------|

   Em              F               C
|-----------------------1---------------3--0------------3--0------|
|-------3--0------------1--1----------1-1----3-1------1-1----3-1--|
|-----0-0--0--0-------2-2--2-2--------0---------------0-----------|
|---2---------------3---------------2---------------2-------------|
|-2---------------3---------------3---------------3---------------|
|-----------------------------------------------------------------| repeat till end

Tap to rate this tab
# A B C D E F G H I J K L M N O P Q R S T U V W X Y Z