Song name
# A B C D E F G H I J K L M N O P Q R S T U V W X Y Z

Misc Unsigned Bands - Ninth Kingdom - Divination Of Self Part 1 tab

This is the least difficult song on our new album "Where No Kings Shall Roam"
It's structure is straight forward.
It's the most basic of what we play. We add little things to exaggerate the notes and 
when we play it.  It would be difficult to tab out those little things we do.

This is the first half. The song is on our myspace page. Hope you guys have fun with it!!
Amblividon-N.K.

any question msg us at:
www.myspace.com/ninthkingdom  or at
ninthkingdom@yahoo.com


Down tune 1 1/2 steps
6-C#       3-E
5-F#       2-G#
4-B        1-C#

R = Repeat

 copyright 2007


GTR 1&2 Riff 1
|---------------------------------------------------------------------------|
|---------------------------------------------------------------------------|
|---------------------------------------------------------------------------|
|---------------------------------------------------------------------------|
|-7-----------7-----------7-----------------------------------7-------------|
|-5 555-8877445-555-8877445-555-8877444455663355665-555-8877445-555-887744--|

|------------------------------------|| R=4x
|------------------------------------||
|------------------------------------||
|------------------------------------||
|-8-----8-------8---8---8------------||
|-6-666-6-666-6-666-6---6------------||


GTR 2 Riff 2
|------------------------------------------------------------------------|
|------------------------------------------------------------------------|
|------------------------------------------------------------------------|
|------------------------------------------------------------------------|
|-7-777-7-7--5-7-777-7-7-5--7-777-7-7-7-7-8-8-8-10-10-7-777-7-7-5-7-777--|
|-7-777-7-7--5-7-777-7-7-5--7-777-7-7-7-7-8-8-8-10-10-7-777-7-7-5-7-777--|

|----------------------------------|| R= 2x
|----------------------------------||
|----------------------------------||
|------------7--6-----3----7--6--7-||
|-7-7-5-4----5--4--0--1----5--4--5-||
|-7-7-5-4----5--4--0--1----5--4--5-||

GTR 1 Riff 2
|-------------------------------------------------------------------------|
|-------------------------------------------------------------------------|
|-------------------------------------------------------------------------|
|-------------------------------------------------------------------------|
|-14-141414-14-14-12-14-141414-14-14-12-14-141414-14-14-14-14-15-15-15-17-|
|-12-121212-12-12-10-12-121212-12-12-10-12-121212-12-12-12-12-13-13-13-15-|

-----------------------------------------------------------------------||R=2x
-----------------------------------------------------------------------||
-----------------------------------------------------------------------||
------------------------------------------------7--6-----3----7--6--7--||
-17-17-141414-14-14-12-14-141414-14-14-12-4-----5--4--0--1----5--4--5--||
-15-12-121212-12-12-10-12-121212-12-12-10-4-----5--4--0--1----5--4--5--||


GTR 2 Riff 3
|-----------------------------------------------------------------------|
|-----------------------------------------------------------------------|
|-----------------------------------------------------------------------|
|-2-2-2-2-2-2-4-4-4-4-4-4-5-5-5-5-5-5-7-7-7-7-7-7-2-2-2-2-2-2-4-4-4-4-4-|
|-2-2-2-2-2-2-2-2-2-2-2-2-3-3-3-3-3-3-5-5-5-5-5-5-2-2-2-2-2-2-2-2-2-2-2-|
|-0-0-0-0-0-0-2-2-2-2-2-2-3-3-3-3-3-3-5-5-5-5-5-5-0-0-0-0-0-0-2-2-2-2-2-|

-------------------------|| R=2x
-------------------------||
-------------------------||
-5-5-5-5-5-5-3-3-3-3-3-3-||
-3-3-3-3-3-3-1-1-1-1-1-1-||
-3-3-3-3-3-3-1-1-1-1-1-1-||

GTR 1 Riff 3
|-------------------------------------------------------------------------|
|-------------------------------------------------------------------------|
|-------------------------------------------------------------------------|
|-9-9-9-9-9-9-11111111111112-12-12-12-12-12-14-14-14-14-14-14-9-9-9-9-9-9-|
|-7-7-7-7-7-7-9-9-9-9-9-9-10-10-10-10-10-10-12-12-12-12-12-12-7-7-7-7-7-7-|
|-7-7-7-7-7-7-9-9-9-9-9-9-10-10-10-10-10-10-12-12-12-12-12-12-7-7-7-7-7-7-|

-------------------------------------------|| R=2x
-------------------------------------------||
-------------------------------------------||
-11111111111112-12-12-12-12-12-8-8-8-8-8-8-||
-9-9-9-9-9-9-10-10-10-10-10-10-6-6-6-6-6-6-||
-9-9-9-9-9-9-10-10-10-10-10-10-6-6-6-6-6-6-||


GTR 2 Riff 4
|---------------------------------------------------|| R=4x
|---------------------------------------------------||
|---------------------------------------------------||
|-------------------5--5--5--------------------4--4-||
|-2-----2-----2-----3--3--3--2-----2-----2-----2--2-||
|-0-000-0-000-0-000-3--3--3--0-000-0-000-0-000-2--2-||

GTR 1 Riff 4
|---------------------------------------------------|| R=4x
|---------------------------------------------------||
|---------------------------------------------------||
|-------------------10-10-10-------------------9--9-||
|-2-----2-----2-----8--8--8--2-----2-----2-----7--7-||
|-0-000-0-000-0-000-8--8--8--0-000-0-000-0-000-7--7-||

Play:
RIFF 3 2x
RIFF 4 4x
RIFF 2 2x


GTR 1&2 Riff 5
|--------7--------------7-------------7--------------------------|
|--------8--------------8-------------8--------------------------|
|--------9--------------9-------------9--------------------------|
|-9-----------7--9----------7--9-----------7--9--10-10-10-12--12-|
|-7-----------5--7----------5--7-----------5--7--8--8--8--10--10-|
|-7-----------5--7----------5--7-----------5--7--8--8--8--10--10-|

--------7---------------7--------------------------------------|| R=2x
--------8---------------8--------------------------------------||
--------9---------------9--------------------------------------||
-9-----------7--9------------7----------7--6-----3-----7--6--7-||
-7-----------5--7------------5--4-------5--4--0--1-----5--4--5-||
-7-----------5--7------------5--4-------5--4--0--1-----5--4--5-||


GTR 1&2 Riff 6
|----------------------------------------------||
|----------------------------------------------||
|----------------------------------------------||
|-------2-----1--------------------------------||
|-2-----3-----2--------------------------------||
|-0------------------4--3--2--5--3--2--6--5--3-||

Play:
RIFF 1 3x


GTR 2 Riff 7
|----------------------------------------------------------------------------|
|----------------------------------------------------------------------------|
|--------------------------8--9--9---------8--9--8--5------------------------|
|--------------3----------------------------------------------------3--------|
|-------2------------2-----6--7--7---------6--7--6--3--------2-------------2-|
|-0-111---011----011----------------0-000--------------0-111---011-----011---|

-------------------------------------------------------||
-------------------------------------------------------||
---8--9--9---------8-----------------------------------||
-------------------------------------------------------||
---6--7--7---------6-----777777999999101010101010666666||
------------0-000--------------------------------------||

GTR 1 Riff 7
|----------------------------------------------------------------------------|
|----------------------------------------------------------------------------|
|----------------------------------------------------------------------------|
|-------------10-----------8--9--9---------8--9--8--5---------------10-------|
|-------9------------2---------------------------------------9-------------9-|
|-0-888---088----088-------6--7--7--0-000--6--7--6--3-0--888---088-----088---|

-------------------------------------------------------||
-------------------------------------------------------||
-------------------------------------------------------||
---8--9--9---------8-----------------------------------||
-------------------------------999999101010101010666666||
---6--7--7--0-000--6-----777777------------------------||


GTR 2 Riff 8
|-------------------------------|-------------------------------------------|
|-------------------------------|-------------------------------------------|
|-8--9--9---------8--9--8--5----|------------------------8--9--9---------8--|
|-------------------------------|------------3------------------------------|
|-6--7--7---------6--7--6--3----|------2------------2----6--7--7---------6--|
|----------0-000----------------|0-111---011----011---------------0-000-----|

--------------------------|| R=2x
--------------------------||
--------------------------||
-------------333333-------||
-------222222------222222-||
-111111-------------------||

GTR 1 Riff 8
|-------------------------------|-------------------------------------------|
|-------------------------------|-------------------------------------------|
|-------------------------------|-------------------------------------------|
|-8--9--9---------8--9--8--5----|-----------10-----------8--9--9---------8--|
|-------------------------------|------9------------9-----------------------|
|-6--7--7--0-000--6--7--6--3----|0-888---088----088------6--7--7--0-000--6--|

--------------------------------|| R=2x
--------------------------------||
-------------101010101010-------||
-------999999------------999999-||
-888888-------------------------||
--------------------------------||


GTR 2 Riff 9
|--------------------------------------------------------------------|
|--------------------------------------------------------------------|
|--------------------------------------------------------------------|
|-7----------------------8------7-------------5----8----7------------|
|-5----5--5--5--5--7--8----8--7-5----5--5--5--3----6----5----5--5--5-|
|-5----5--5--5------------------5----5--5--5--3----6----5----5--5--5-|

---------------------------------------------|| R=2x
---------------------------------------------||
---------------------------------------------||
---------5-------3-------------6-----6----6--||
-5--7--8---8--7--1----1--1--1--4-----4----4--||
-----------------1----1--1--1--4-----4----4--||

GTR 1 Riff 9
|------------------------------------------------------------|
|------------------------------------------------------------|
|-------9-9-9-10-10-10-7-7-9-------9-9-9---------------------|
|-7-7-7----------------------7-7-7---------------------------|
|-----------------------------------------10--8--7--10--8--7-|
|-----------------------------------------10--8--7--10--8--7-|
2007 Ninth Kingdom

CONTINUE TO PART 2....
Tap to rate this tab
 
# A B C D E F G H I J K L M N O P Q R S T U V W X Y Z