Song name
# A B C D E F G H I J K L M N O P Q R S T U V W X Y Z

Misc Unsigned Bands - Irenic - Caught Red Handed tab

Caught Red Handed
Standard Tuning

Chorus
|--------------------------------| 
|--------------------------------| 
|1111111111115555------------3333|
|----------------111111111111----|


Verse
|----------------| 
|----------------| 
|11----55-----3--|
|--------33----11|

Bridge

|-----------------| 
|-----------------| 
|----1-11---------|
|3-33----1-11-1-11|

Intro;
Chorus x2
Verse x4
Chorus x4
Verse x4
Chorus x4
Bridge x4
Chorus x8


Tap to rate this tab
# A B C D E F G H I J K L M N O P Q R S T U V W X Y Z