Song name
# A B C D E F G H I J K L M N O P Q R S T U V W X Y Z

Misc Unsigned Bands - Ludilo - Nigdje Me Nema tab

LUDILO - Nigdje me nema

---TZ/TC---

riff 1
E||----------------------------|-------------------------------|
B||----------------------------|-------------------------------|
G||----------------------------|-------------------------------|
D||--9--9-9-9--9--9-9-9--10----|--9--9-9-9--9-9-9--9-9-12--10--|
A||--7--7-7-7--7--7-7-7---8----|--7--7-7-7--7-7-7--7-7-10---8--|
E||----------------------------|-------------------------------|


----------------------------|-----------------------------|
----------------------------|-----------------------------|
----------------------------|-----------------------------|
--9--9-9-9--9--9-9-9--10----|------------7----------------|
--7--7-7-7--7--7-7-7---8----|--7--8--10-----10--8-10-7----|
----------------------------|-----------------------------|

riff 2
----------------------------|----------------------------|
----------------------------|----------------------------|
----------------------------|----------------------------|
--4--4-4-4--4-4-4--4-4-5----|--4--4-4-4--4-4-4--4-4-5----|
--2--2-2-2--2-2-2--2-2-3----|--2--2-2-2--2-2-2--2-2-3----|
----------------------------|----------------------------|


----------------------------|----------------------|
----------------------------|----------------------|
----------------------------|----------------------|
--4--4-4-4--4-4-4--4-4-5----|--7----6----5----4----|
--2--2-2-2--2-2-2--2-2-3----|--5----4----3----2----|
----------------------------|----------------------|

riff 3
----------------------------|----------------------------|
----------------------------|----------------------------|
----------------------------|----------------------------|
--9--9--9-9-9--9--9--9-9-9--|--7--7--7-7-7--7--7--7-7-7--|
--7--7--7-7-7--7--7--7-7-7--|--5--5--5-5-5--5--5--5-5-5--|
----------------------------|----------------------------|

   
----------------------------|----------------------------|
----------------------------|----------------------------|
----------------------------|----------------------------|
----------------------------|----------------------------|
--5--5--5-5-5--5--5--5-5-5--|--3--3--3-3-3--3--3--3-3-3--|
--3--3--3-3-3--3--3--3-3-3--|--1--1--1-1-1--1--1--1-1-1--|

  

riff 1: 4X (0:00-0:21)
riff 2: 2X (0:22-0:32)
riff 1: 4X (0:33-0:54)
riff 2: 2X (0:55-1:05)
-------
riff 3: 5X (1:06-1:32)
-------
riff 1: 4X (1:33-1:54)
riff 2: 2X (1:55-2:05)
-------
riff 3: 7X (2:06-2:43)
-------
riff 1: 2X (2:44-2:55)
Tap to rate this tab
# A B C D E F G H I J K L M N O P Q R S T U V W X Y Z