Song name
# A B C D E F G H I J K L M N O P Q R S T U V W X Y Z

Misc Unsigned Bands - The Raging Banana Lads - Idea For A Song tab

e|------------------------------------------------------------------------|
B|-----1----1--1---1---1--------------------------------------------------|
G|---2----2-------0---0----------0----0---0------1----1---1------2----2--2|
D|-2----2----2---3---3---3-----2----2----------2----2----------2----2-----|
A|---------------------------3----3-----3----2----2----2-----0----0----0--|
E|------------------------------------------------------------------------|

 |------------------------------------------|
 |------------------------------------------|
 |------2----2--2-------1-----1--1---111111-|
 |----3----3----------2-----2--------222222-|
 |--3----3----3-----2-----2----2-----222222-|
 |------------------------------------------|

  From there you play the arpeggio bits but in chords.
Tap to rate this tab
 
# A B C D E F G H I J K L M N O P Q R S T U V W X Y Z