Song name
# A B C D E F G H I J K L M N O P Q R S T U V W X Y Z

Misc Unsigned Bands - James Blond - Estonian Girls tab

James Blond - Estonian Girls solo

Should be 100% correct, just in case if anyone is interested of this cool songs nifty solo.

Can't get enough of these Estonian girls indeed :)



                                             PM------------------|
e||------------------|--------------------|----------------|----------------|
B||------------------|--------------------|----------------|----------------|
G||------------------|--------------------|---------2-0----|-------2/14-----|
D||------------------|--------------------|-----2-4-----4--|-2-0------------|
A||-0-------0------0-|------0------0-----0|-0-4------------|-----4----------|
E||---3b5-----3b5----|3b5-----3b5----3b5--|----------------|----------------|

e||------------------|--------------------|----------------|----------------|
B||------------------|--------------------|----------------|-------5--------|
G||------------------|--------------------|----------------|-------5----5-7b|
D||------------------|--------------------|----------------|---5-7----7-----|
A||-0-------0------0-|------0------0-----0|-0------------0-|/7--------------|
E||---3b5-----3b5----|3b5-----3b5----3b5--|---2b3--0-3b5---|----------------|

e||----5--------5----|-----5--------------|------------5---------|
B||---5--------5-----|-----5--------------|-5b6r5------5---------|
G||b9----7b9---------|-7b9---7b9r7~---7---|-5b6r5--7b9---7b9r7-5-|
D||------------------|--------------------|----------------------|
A||------------------|--------------------|----------------------|
E||------------------|--------------------|----------------------|

e||------------------|--------------------|----------------|------0---------|
B||------------------|--------------------|----------------|-----0---3b5~---|
G||------------------|--------------------|----------------|-2b4------------|
D||-----------5-6----|-7---5-6------------|-------2~-------|----------------|
A||-7-~------------7-|---7-----7-2-4-2----|-5-2-4----------|----------------|
E||------------------|--------------------|----------------|----------------|


 h   - hammer-on
 p   - pull-off
 b   - bend
 r   - bend release
 /\  - slide into or out of
 PM  - palm muting
 ~   - vibrato (or occasionally let ring)
Tap to rate this tab
# A B C D E F G H I J K L M N O P Q R S T U V W X Y Z