Song name
# A B C D E F G H I J K L M N O P Q R S T U V W X Y Z

Misc Unsigned Bands - Fallen Traitors - Misty Lane tab

Band: Fallen Traitors
Album: Fire In That Lonely Sky
Song: Misty Lane
Tuning: Drop D
Difficulty: Intermediate "5/10"
Tabbing Time: Aprox. 3 hours, 56 minutes, 13 seconds
End Time: 9:01PM

Have fun!!! This is a song I made on my own... I got bored and listened to some
Beatles... So yeah.....

{INTRO/ VERSE - MED Bass =5, Treble MAX =10}
E]--------------------------------------------------------------------------|
G]--------------------------------------------------------------------------|
B]----------------------7---------------------------------------------------|
D]---9---9---7---7---9--7---9--7---7----9---9---7---7---5-X-5---5-----------|
A]---9---9---7---7---9--5---9--7---7----9---9---7---7---5-X-5---5-----------|
D]---7---7---5---5---7------7--5---5----7---7---5---5---3-X-3---3-----------|
(Note 1: Play this intro 4 times.)

{CHORUS - Clean, but slight distortion}
E]--------------------------------------------------------------------------|
B]--------------------------------------------------------------------------|
G]--------------------------------------------------------------------------|
D]---5---5---5---5---5---5---5---XX--3---3---3--XX--7---7---7--XX-----------|
A]---5---5---5---5---5---5---5---XX--3---3---3--XX--7---7---7--XX-----------|
D]---3---3---3---3---3---3---3---XX--1---1---1--XX--5---5---5--XX-----------|
+REPEAT X4+
(Note 2: After this {CHORUS}, go through the process again.
{INTRO/VERSE x2 & CHORUS x4})

{INTERLUDE - Clean, no distortion, Bass on MED-HI =7}
E]--14--14--14--14--14--14--14--14--14--14--14--14--14--14--14--------------|
B]----15--15--14--14--13--13--12--12--11--11--------------------------------|
G]--------------------------------------------14--14--13--13--12------------|
D]--------------------------------------------------------------------------|
A]--------------------------------------------------------------------------|
D]--------------------------------------------------------------------------|


{CLEAN MIDDLE 8 - Clean, no ditortion, Bass on MED =5}
E]--------------------------------------------------------------------------|
B]---7-------7--10--10--10--10--8--8--8--8--7--7--7--7--7--7--7-------------|
G]---7----7h9----9---9---9---9--7--7--7--7--7--7--7--7--7--7--7-------------|
D]---7----------11--11--11--11--9--9--9--9--7--7--7--7--7--7--7-------------|
A]---0--------------------------------------0--0--0--0--0--0--0-------------|
D]---0--------------------------------------0--0--0--0--0--0--0-------------|
(Note 3: After playing this twice, play in this order;
{CHORUS x2, INTERLUDE x1, INTRO/ VERSE x3} on end of, {INTRO/ VERSE} hit this:)

E]--------------------------------------------------------------------------|
B]--------------------------------------------------------------------------|
G]--------------------------------------------------------------------------|
D]---5~~~~~~~~~~~~~~~~~~~~~~~~5-5-2-3-0~~~~~~~~~(fade out...)---------------|
A]---5~~~~~~~~~~~~~~~~~~~~~~~~5-3-0-1-0~~~~~~~~~(fade out...)---------------|
D]---3~~~~~~~~~~~~~~~~~~~~~~~~3-------0~~~~~~~~~(fade out...)---------------|

>>-----Legend-----<<
     /- Slide
    h- Hammer On
    X- Blocking
    ~- Vibrato
>>-----Legend-----<<

HOPE U ENJOY!!!!
Tap to rate this tab
 
# A B C D E F G H I J K L M N O P Q R S T U V W X Y Z