Song name
# A B C D E F G H I J K L M N O P Q R S T U V W X Y Z

Misc Unsigned Bands - Ninth Kingdom - Divination Of Self Part 2 tab

Continuation from the first half. This is the second half of Divination Of Self
off our latest release
"Where No Kings Shall Roam"
You can hear the song on our myspace page:
www.myspace.com/ninthkingdom

Down tune 1 1/2 steps
6-C#       3-E
5-F#       2-G#
4-B        1-C#

R = Repeat

 copyright 2007

GTR 1 Riff 9                                                             R=2x
|--------------------------------------------------------------------------||
|--------------------------------------------------------------------------||
|---------9--9--9--10--10--10--7--7--9--------9--9--9----------------------||
|-7--7--7------------------------------7--7--7-----------------------------||
|------------------------------------------------------12--10108--10--887--||
|------------------------------------------------------12--10108--10--887--||


GTR 2 Riff 10
|--------------------------------------------------------|
|--------------------------------------------------------|
|--------------------------------------------------------|
|-7-7-7-7-7-7-----------5--------7-7-7-7-7-7-5-5-5-8-8-8-|
|-5-5-5-5-5-5--5--7--8-----8--7--5-5-5-5-5-5-3-3-3-6-6-6-|
|-5-5-5-5-5-5--------------------5-5-5-5-5-5-3-3-3-6-6-6-|

-----------------------------------------------------6--|| R=2x
-----------------------------------------------------7--||
-----------------------------------------------------8--||
-7-7-7-7-7-7-----------5--------3-3-3-3-3-3-6-----6-----||
-5-5-5-5-5-5--5--7--8-----8--7--1-1-1-1-1-1-4-----4-----||
-5-5-5-5-5-5--------------------1-1-1-1-1-1-4-----4-----||

GTR 1 Riff 10
|----------------------------------------------------------|
|----------------------------------------------------------|
|-------999999101010101010777799------999999---------------|
|-777777------------------------777777---------------------|
|--------------------------------------------10-887-10-887-|
|--------------------------------------------10-887-10-887-|

------------------------------------------------------------|| R=2x
------------------------------------------------------------||
-------999999101010101010777799------999999-----------------||
-777777------------------------777777-----------------------||
--------------------------------------------12-10108-10-887-||
--------------------------------------------12-10108-10-887-||

Play:
RIFF 6


GTR 2 Riff 11
|------------------------------------------------------------------------|
|------------------------------------------------------------------------|
|------------------------------------------------------------------------|
|-------2-----1-----------1-----0-----------------------------2-----1----|
|-2-----3-----2-----2-----2-----1-----------------------2-----3-----2----|
|-0-----------------0-----------------0--1--3--4--3--1--0----------------|

-------7--4-------4--10--7----------7--12--8----------------------|| R=2x
------------6---6-----------9-----9----------10-------------------||
--------------7----------------10---------------9-----------------||
--------------------------------------------------10--------------||
-2---------------------------------------------------12--7--------||
-0----------------------------------------------------------------||

GTR 1 Riff 11
|------------------------------------------------------------------------|
|------------------------------------------------------------------------|
|------------------------------------------------------------------------|
|-------2-----1-----------1-----0-----------------------------2-----1----|
|-2-----3-----2-----2-----2-----1-----------------------2-----3-----2----|
|-0-----------------0-----------------0--1--3--4--3--1--0----------------|

-------10--7--------7--13--10----------10--17--12---------------------|| R=2x
-------------9----9-----------12----12------------13------------------||
---------------10----------------13------------------14--9------------||
-----------------------------------------------------------10---------||
-2------------------------------------------------------------12------||
-0--------------------------------------------------------------------||


GTR 2 Riff 12
|--------------------------------------------------------|| R=4x
|--------------------------------------------------------||
|--------------------------------------------------------||
|-------999999101010101010666677------999999-------------||
|-777777------------------------777777-------------------||
|-------------------------------------------888888555577-||

GTR 1 Riff 12
|--------------------------------------------------------|| R=4x
|--------------------------------------------------------||
|--------------------------------------------------------||
|--------------------------------------------------------||
|-------999999101010101010666677------999999-------------||
|-777777------------------------777777------8888888555577||


GTR 2 Riff 13
|---------------------------------------------|| R=4x
|---------------------------------------------||
|---------------------------------------------||
|-----9----10----6---7-------9----------------||
|---------------------------------------------||
|-0000------------------00000-----8-7-5-8-7-5-||

GTR 1 Riff 13
|----------------------------------------------|| R=4x
|----------------------------------------------||
|----------------------------------------------||
|-----9----10----6---7------9----7-------------||
|-7777------------------7777-------10-9-10-9-6-||
|----------------------------------------------||


GTR 2 Riff14
|----------------------------------------------|| R=4x
|----------------------------------------------||
|----------------------------------------------||
|----------------------------------------------||
|------9----10----6---7-------9----------------||
|-7----------------------7---------8-7-5-8-7-8-||

GTR 1 Riff14
|------------------------------------------------|| R=4x
|------------------------------------------------||
|------------------------------------------------||
|------9----10----6---7-------9----7-------------||
|-7----------------------7-----------10-9-10-9-6-||
|------------------------------------------------||


Play:
RIFF 1 3x
RIFF 2 2x
RIFF 3 2x
RIFF 4 2x
RIFF 3 2x
RIFF 4 2x
RIFF 2 2X


GTR 1&2
|-------------------------------------------------------------------|
|-------------------------------------------------------------------|
|-------------------------------------------------------------------|
|-6-----7-6---6----6----6-----8-6---3-----7-6-7-7-----5----8---7----|
|-4-----5-4-0-4----4----4-----5-4-0-1-----5-4-5-7-----5----8---7----|
|-4-----5-4-0-4----4----4-----5-4-0-1-----5-4-5-5-----3----6---5----|

----------------|| END.
----------------||  2007 Ninth Kingdom
----------------||
----6--6--6-----||
----4--4--4-----||
----4--4--4-----||
Tap to rate this tab
# A B C D E F G H I J K L M N O P Q R S T U V W X Y Z