Song name
# A B C D E F G H I J K L M N O P Q R S T U V W X Y Z

Misc Unsigned Bands - Valeri Belokon - The Running Of The Human Race tab

The Running Of The Human Race
In loving memory of Dominic Owen Mallary (1984-2008), to whom this song was written for.


Intro pt1
Guitar I
 |------------------------------------------------------------------|
 |------------------------------------------------------------------|
 |------------------------------------------------------------------|
 |--3-2-----3-2-/5---3-2-------------3-----3-2-----32-2-/5---33-2---|
 |5-----5-1--------5-----5-\1-1-1-1-3-3--5-----5-1---------5------5-|
 |------------------------------------------------------------------|
pm------------------------------------------------------------------|

 |----------------------------------|
 |----------------------------------|
 |----------------------------------|
 |-----------------1111111133333333-|
 |\1-1-1-1-3-3-3-3-1111111133333333-|
 |----------------------------------|
pm-------------------------------xx-|


Guitar II
 |------------------------------------------------------------------|
 |------------------------------------------------------------------|
 |------------------------------------------------------------------|
 |-----------------------------------3-----3-2-----32-2-/5---33-2---|
 |----------------------------------3-3--5-----5-1---------5------5-|
 |------------------------------------------------------------------|
pm

 |-----------------------------------|
 |-----------------------------------|
 |-----------------------------------|
 |-----------------1111111133333333--|
 |\1-1-1-1-3-3-3-3-1111111133333333--|
 |-----------------------------------|
pm-------------------------------xx--|


----------
Intro pt 2
Guitar 1
 |-----------------------------------------------------|
 |-----------------------------------------------------|
 |-----------------------------------------------------|
 |--3232--3232553232----32-2--3232--3232553232----32-2-|
 |------------------------5-------------------------5--|
 |-----------------------------------------------------|
pm-----x-----xxx---x-------x-----x-----xxx---x-------x-|


Guitar II
 |-----------------------------------------------------|
 |-----------------------------------------------------|
 |-----------------------------------------------------|
 |------------55-------232-2------------55-------232-2-|
 |55----55----------545---5-55----55----------545---5--|
 |-----------------------------------------------------|
pmxx----xx----xx-----------xxx----xx----xx-----------x-|

---------
Intro pt3
Guitar I
 |-------------------------------------------|
 |-------------------------------------------|
 |--------------------------------------2----|fbr
 |--3232------3232--3232--3232------3--------|
 |------5-\311----11----------5-\311--11-----|
 |-------------------------------------------|
pm----------xx---xxx---x----------xx--xx-----|

Guitar II
 |------------------------------------------|
 |------------------------------------------|
 |------------------------------------------|
 |------------3232--3232------------3-------|
 |55----5-\311----11----55----5-\311--11----|
 |------------------------------------------|
pmxx--------xx----xx----xx--------xx--xx----|


-------
Verse 1
Guitar I
 |------------------------------------------------------|
 |------------------------------------------------------|
 |------------------------------------------------------|
 |---3--53232-----------3-----3--53232-5555555533333333-|
 |5----------1-1-1-1-1-3-3-5----------5-----------------|
 |-00-00--------------------00-00-----------------------|
pm-xx-xx--------------------xx-xx-----------------------|

 |---------------------------------------------------|
 |---------------------------------------------------|
 |-----------------------------------------------2-2-|
 |---3--53232-------------3-----3--53232-33333333----|
 |5----------5-1-1-1-1-1-3-3-5----------5------------|
 |-00-00----------------------00-00------------------|
pm-xx-xx----------------------xx-xx------------------|

Guitar II
 |----------------------------------------------------|
 |----------------------------------------------------|
 |----------------------------------------------------|
 |---3--3--------------3-----3--5-----555555553333333-|
 |5-----------1-1-1-1-3-3-5---------------------------|
 |----------------------------------------------------|
pm

 |--------------------------------------------------|
 |--------------------------------------------------|
 |----------------------------------------------2-2-|
 |---3--5----------------3-----3--5-----33333333----|
 |5-----------1-1-1-1-1-3-3-5-----------------------|
 |--------------------------------------------------|
pm--------------------------------------------------|


[Intro pt2]

-------
Verse 2
Guitar I
 |---------------------------------------------|
 |---------------------------------------------|
 |------------------------------------------1~-|
 |--3232------3232--3232--3232------32325323---|
 |------5-\311----11----------5-\311-----------|
 |---------------------------------------------|
pm----------xx---xxx---x----------xx--xx-------|

Guitar II
 |-------------------------------------------------|
 |-------------------------------------------------|
 |------------------------------------------1~-----|
 |------------3232--3232----------------5323-------|
 |55----5-\311----11----55----5-\311---------------|
 |-------------------------------------------------|
pmxx--------xx----xx----xx--------xx--xx-----------|

-------
Verse 3
Guitar I
 |-------------------------------------------------------------|
 |-------------------------------------------------------------|
 |-------------------------------------------------------------|
 |----33332222---------333322225555----33332222-------------3--|
 |5555--------555551111------------5555--------55551-1-1-1-3-3-|
 |-------------------------------------------------------------|
pm-------------------------------------------------------------|

 |--------------------------------------------------------------|
 |--------------------------------------------------------------|
 |-----------------------------------------------------------2~-|
 |----33332222---------333322225555----33332222-------------3---|
 |5555--------555551111------------5555--------55551-1-1-1-3----|
 |-------------------------------------------------1-1-1-1-3----|
pm--------------------------------------------------------------|


Guitar II
 |------------------------------------------------------------|
 |------------------------------------------------------------|
 |------------------------------------------------------------|
 |----3---2-----------3---2---5-------3---2----------------3--|
 |5-----------5---1---------------5-----------5---1-1-1-1-3-3-|
 |--00--00--00--00--00--00--00--00--00--00--00--00------------|
pm--xx--xx--xx--xx--xx--xx--xx--xx--xx--xx--xx--xx------------|

 |------------------------------------------------------------|
 |------------------------------------------------------------|
 |------------------------------------------------------------|
 |----3---2-----------3---2---5-------3---2----------------3--|
 |5-----------5---1---------------5-----------5---1-1-1-1-3---|
 |--00--00--00--00--00--00--00--00--00--00--00--00------------|
pm--xx--xx--xx--xx--xx--xx--xx--xx--xx--xx--xx--xx------------|


------
Bridge
Guitar I
 |---------------------------|
 |---------------------------|
 |---------------------------|
 |-------------------------\-|
 |-------------------------\-|
 |---------------------------|
pm---------------------------|

Guitar II
 |----------------------------|
 |----------------------------|
 |777777-777777-777777-777777-|
 |555555-555555-555555-555555-|
 |555555-555555-555555-555555-|
 |----------------------------|
pm-----x------x------x------x-|


----
Solo
 |----------------------------------------------|
 |------1314--1513--1311--1513--1311------------|
 |161513----15----16----15----16----1513141514~-|
 |----------------------------------------------|
 |----------------------------------------------|
 |----------------------------------------------|
pm----------------------------------------------|

 |----------------------------------------------|
 |------1314--1513--1311--1513--1311--------14~-|
 |161513----15----16----15----16----15131415----|
 |----------------------------------------------|
 |----------------------------------------------|
 |----------------------------------------------|
pm----------------------------------------------|

 |--------------------------------------------------------|
 |-------13b14--15~13--13b14--15~13--13b14-------13h15b14-|
 |13-1516-----16-----16-----16-----16-----16-1516---------|
 |--------------------------------------------------------|
 |--------------------------------------------------------|
 |--------------------------------------------------------|
pm--------------------------------------------------------|

 |------------------------------------------------------|
 |-------13b14--15~13--13b14--15~13--13b14--------------|
 |13-1516-----16-----16-----16-----16-----16-15-16h1513-|
 |------------------------------------------------------|
 |------------------------------------------------------|
 |------------------------------------------------------|
pm------------------------------------------------------|

 |------------------------------------------------------------|
 |-------------------------13fbr--------------------------15~-|
 |13-13141514fbr--13-131415-----15-13-131415fbr--13-131415----|
 |--------------15-----------------------------15-------------|
 |------------------------------------------------------------|
 |------------------------------------------------------------|
pm------------------------------------------------------------|

 |--------------------------------------------------------------|
 |-------------------------13fbr-------------------16b17--16b17-|
 |13-13141514fbr--13-131415-----15-13-131415fbr--15-----15------|
 |--------------15-----------------------------15---------------|
 |--------------------------------------------------------------|
 |--------------------------------------------------------------|
pm--------------------------------------------------------------|

 |----------------------------------------------|
 |------1314--1513--1311--1513--1311------------|
 |161513----15----16----15----16----1513141514~-|
 |----------------------------------------------|
 |----------------------------------------------|
 |----------------------------------------------|
pm----------------------------------------------|

 |---------------------------------------|
 |------1314--1513--1311--1513--1311-----|
 |161513----15----16----15----16----1513-|
 |---------------------------------------|
 |---------------------------------------|
 |---------------------------------------|
pm---------------------------------------|

 |--------------------------------------|
 |----------13-151515131313-------------|
 |1516-15-16---------------161616151515-|
 |--------------------------------------|
 |--------------------------------------|
 |--------------------------------------|
pm--------------------------------------|

 |----------------------------------------------------------|
 |-------------------------------------------------13h15b16-|
 |13~13~12~13~-13~13~14~13~-13~13~14~13~-13~13~1516---------|
 |----------------------------------------------------------|
 |----------------------------------------------------------|
 |----------------------------------------------------------|
pm

 |--------------------------------------------------------|
 |-------13b14--15~13--13b14--15~13--13b14-------13h15b14-|
 |13-1516-----16-----16-----16-----16-----16-1516---------|
 |--------------------------------------------------------|
 |--------------------------------------------------------|
 |--------------------------------------------------------|
pm--------------------------------------------------------|

 |--------------------------------------------------------|
 |-------13b14--15~13--13b14--15~13--13b14-------13h18b19-|
 |13-1516-----16-----16-----16-----16-----16-1516---------|
 |--------------------------------------------------------|
 |--------------------------------------------------------|
 |--------------------------------------------------------|
pm--------------------------------------------------------|

 |-------------------------------------------------|
 |------13----1513--1311--1513--1311---------------|
 |131516--1615----16----15----16----151315161513---|
 |----------------------------------------------16-|
 |-------------------------------------------------|
 |-------------------------------------------------|
pm-------------------------------------------------|

 |------------------------------------------------14--------|
 |------13----1513--1311--1513--1311--------131516---15-19~-|
 |131516--1615----16----15----16----15131516----------------|
 |----------------------------------------------------------|
 |----------------------------------------------------------|
 |----------------------------------------------------------|
pm----------------------------------------------------------|
Dear fictional God I actually made it threw that entire solo.

----
Bridge 2
Guitar II
 |-------|
 |-------|
 |6--4-4-|
 |4--2-2-|
 |4--2-2-|
 |-------|
pm-------|


-------
Verse 4
Guitar I
 |----------------------------------------|
 |----------------------------------------|
 |----------------------------------------|
 |----------------------------------------|
 |\(to 12)/(to 15)\(full neck)/(full neck)
 |\(to 12)/(to 15)\(full neck)/(full neck)
pm----------------------------------------

 |------------------------------------------------------|
 |------------------------------------------------------|
 |------------------------------------------------------|
 |----18-------1616-----18----------------18-------1616-|
 |2020-019-1818-0-0-2020-019-18181616-2020-019-1818-0-0-|
 |-------0-----------------0------0-0--------0----------|
pm--------------x-x---------------x-x---------------x-x-|

 |-----------------------------0--|
 |-----------------------------0--|
 |-----------------------------0--|
 |----18--20202020(20202020)b210--|
 |2020-019------------------------|
 |-------0------------------------|
pm--------------------------------|

Guitar 2
 |----------------------------------------|
 |----------------------------------------|
 |----------------------------------------|
 |----------------------------------------|
 |----------------------------------------|
 |----------------------------------------|
pm----------------------------------------|

 |-----------------------------------------------|
 |-----------------------------------------------|
 |--139*--1111*---139*--66*---139*--1111*---139--|
 |--117*---9-9*---117*--44*---117*---9-9*---117--|
 |--117*---9-9*---117*--44*---117*---9-9*---117--|
 |-----------------------------------------------|
pm-----------------------------------------------|

 |-----------|
 |-----------|
 |-----------|
 |-----------|
 |---------\-|
 |---------\-|
pm-----------|


-------
Verse 5
Guitar I
 |-------------|
 |-------------|
 |-------------|
 |---3--53232--|
 |5----------5-|
 |-00-00-------|
pm-xx-xx-----x-|

Guitar II
 |------------|
 |------------|
 |------------|
 |---3--5-----|
 |5-----------|
 |------------|
pm------------|
Tap to rate this tab
 
# A B C D E F G H I J K L M N O P Q R S T U V W X Y Z