Song name
# A B C D E F G H I J K L M N O P Q R S T U V W X Y Z

Misc Unsigned Bands - Last Breath - Drive All Night tab

-------------------------------------------------------------------------------
			     Drive All Night - Last Breath
-------------------------------------------------------------------------------
Tabbed by: shredguy
Email: 

This is an awesome song by an unsigned band from Blackpool. Check them out if you 
haven't already www.myspace.com/lastxbreathx

Tuning: Db Ab Db Gb Bb Eb

Intro: Guitar 1
eb|----7---9----9-10----------9---10-9------|
Bb|--7---7---10----------10-------------10--|
Gb|--------------------7----7---7-----------| x2
Db|-----------------------------------------|
Ab|-----------------------------------------|
Db|-----------------------------------------|

Intro: Guitar 2
eb|-----------------------------------------|
Bb|-----------------------------------------|
Gb|-----------------------------------------| x2
Db|--4-4-4-4---------7-7-7-7-2-2-2-2--------|
Ab|--2-2-2-2-5-5-5-5-5-5-5-5-0-0-0-0--------|
Db|----------5-5-5-5------------------------|


Verse: Guitar 1 
     "As the Sun Slowly Sets..."
eb|-------------------------------------------|
Bb|---3-3-3-33--3-3-3-33--3-3-3-33--2-2-2-22--|
Gb|---4-4-4-44--0-0-0-00--2-2-2-22--2-2-2-22--| x4
Db|---4-4-4-44--0-0-0-00--0-0-0-00--2-2-2-22--|
Ab|---2-2-2-22--5-5-5-55--0-0-0-00--0-0-0-00--|
Db|-------------5-5-5-55--0-0-0-00------------|

Verse : Guitar 2
eb|-------------------------------------------|
Bb|-----3-3-------3-2-------3-3-------3-5-----|
Gb|---2---------2---------2---------2---------| x4
Db|-------------------------------------------|
Ab|-------------------------------------------|
Db|-------------------------------------------|


Pre-Chorus: Guitar 1
eb|--------------------|
Bb|---3-3-3-33-333--3--|
Gb|---4-4-4-44-444--0--|
Db|---4-4-4-44-444--0--|
Ab|---2-2-2-22-222--5--|
Db|-----------------5--|

Pre-Chorus: Guitar 2
eb|---------------------|
Bb|-----3---5-3-3-5-10~-|
Gb|---2---2-------------|
Db|---------------------|
Ab|---------------------|
Db|---------------------|


Chorus: Guitar 1
    "Lets Drive All Night..."
eb|--------------------------------------------------------------|
Bb|--3-3-3-33-3-33--2-2-2-22-2-22--3-3-3-33-3-33--3-3-3-33-3-33--|
Gb|--2-2-2-22-2-22--2-2-2-22-2-22--4-4-4-44-4-44--0-0-0-00-0-00--| 
Db|--0-0-0-00-0-00--2-2-2-22-2-22--4-4-4-44-4-44--0-0-0-00-0-00--|
Ab|--0-0-0-00-0-00--0-0-0-00-0-00--2-2-2-22-2-22--5-5-5-55-5-55--|
Db|--0-0-0-00-0-00--------------------------------5-5-5-55-5-55--|

eb|--------------------------------------------------|
Bb|--3-3-3-33-3-33--2-2-2-22-2-22--3-3-3-33-3-33--3--|
Gb|--2-2-2-22-2-22--2-2-2-22-2-22--4-4-4-44-4-44--0--| 
Db|--0-0-0-00-0-00--2-2-2-22-2-22--4-4-4-44-4-44--0--|
Ab|--0-0-0-00-0-00--0-0-0-00-0-00--2-2-2-22-2-22--5--|
Db|--0-0-0-00-0-00--------------------------------5--|

Chorus: Guitar 2
eb|--------------------------------------|
Bb|----7-7-5-875-575------------8-7-5----|
Gb|--77-7-7-7---7---7-6777777767-7-7-767-| x3
Db|--------------------------------------|
Ab|--------------------------------------|
Db|--------------------------------------|
     xxxxxxxxxxxxxxxx xxxxxxxxxxxxxxxxxx 

eb|-----------------------|
Bb|----7-7-5-875-575------|
Gb|--77-7-7-7---7---7-67~-|
Db|-----------------------|
Ab|-----------------------|
Db|-----------------------|
     xxxxxxxxxxxxxxxx 

REPEAT Verse, Pre-Chorus, Chorus.

Solo
e|--------------------------------------------------------------------------------------17-|
B|--------------------------------------10-10-10/12-12-12-12/14-14-14-14/15-15-15-15/17----|
G|-------6-7-9-------6-7-9------7-6--7-----------------------------------------------------|
D|-----7-------7-7---------7-/9------------------------------------------------------------|
A|--/5-------------7-----------------------------------------------------------------------|
E|-----------------------------------------------------------------------------------------|

e|-----------------------------------------------------17~~~~--|
B|--15----14-15-17----------14-15-17-------15-14-15-17---------|
G|-----14----------14-14-------------14-16---------------------|
D|-----------------------14------------------------------------|
A|-------------------------------------------------------------|
E|-------------------------------------------------------------|

REPEAT Verse: Guitar 1 for the 1st half then Guitars 1+2 for the rest.
REPEAT Pre-Chorus, Chorus x2

| /  slide up
| \  slide down
| h  hammer-on
| p  pull-off
| ~  vibrato
| +  harmonic
| x  Mute note
===============================================================================
Tap to rate this tab
# A B C D E F G H I J K L M N O P Q R S T U V W X Y Z