Song name
# A B C D E F G H I J K L M N O P Q R S T U V W X Y Z

Misc Unsigned Bands - Ninth Kingdom - A Storm On The Horizon tab

A couple riffs From A Storm On The Horizon off Ninth Kingdom's album "Where No Kings Shall Roam".
a side note for those that didn't know,
Whenever you see for example GTR 1 Riff 1 and GTR 2 Riff 1
it means at Riff 1 both guitars are being played together.
Amblividon-N.K.

You can find the song on our website or myspace page:
www.myspace.com/ninthkingdom
www.ninthkingdom.org

Down tune 1 1/2 steps
6-C#       3-E
5-F#       2-G#
4-B        1-C#

R = Repeat

 copyright 2007


At 2:40 into the song

GTR1 riff 1
|-------------------------|------------------------|-----------------------|
|-------------------------|----------8--7----------|-----------------------|
|----------8--7-----------|----------------8-------|---------8--7----------|
|-------8--------8--7--8--|-------8-----------9----|------8--------8--7--8-|
|6--9---------------------|6--9--------------------|6--9-------------------|
|-------------------------|------------------------|-----------------------|
                                         R=2x
----------------------10--9H10P9-----------||
-11--10H11P10--------------------11--10----||
--------------11--10-----------------------||
-------------------------------------------||
-------------------------------------------||
-------------------------------------------||

GTR 2 riff 1
|-------------------------|-----------------------|-------------------------|
|-------------------------|-----------------------|-------------------------|
|8--7---------------------|8--7-------------------|8--7---------------------|
|------8--7--5------------|------8--7--6----------|------8--7--5------------|
|---------------6--9--10--|---------------6--9----|---------------6--9--10--|
|-------------------------|-----------------------|-------------------------|
                               R=2x
-----------------7--6H7P6--------||
-8--7H8P7------------------8--7--||
-----------8--7------------------||
---------------------------------||
---------------------------------||
---------------------------------||


GTR 1 riff 2
|------------------------------------------------------------|-------------|
|------------------------------------------------------------|-------------|
|--------------------1111111110101010------------------------|-------------|
|------------11111111----------------111111111010101011111111|-------------|
|999912121212------------------------------------------------|999912121212-|
|------------------------------------------------------------|-------------|

------------------------------------------------|-----------------------------|
--------1111111110101010------------------------|-----------------------------|
------------------------11111111----------------|--------------------11111111-|
11111111------------------------1212121212121212|------------11111111---------|
------------------------------------------------|999912121212-----------------|
------------------------------------------------|-----------------------------|
                                                                        R=2x
--------------------------------|----------------------10--9h10p9---------||
--------------------------------|11--10h11p10----------------------11--10-||
10101010------------------------|--------------11--10---------------------||
--------111111111010101011111111|-----------------------------------------||
--------------------------------|-----------------------------------------||
--------------------------------|-----------------------------------------||

GTR 2 riff 2
|--------------------------------|--------------------------------|---------|
|--------------------------------|------------88887777------------|---------|
|------------88887777------------|--------------------8888--------|---------|
|--------8888--------888877778888|--------8888------------99999999|---------|
|66669999------------------------|66669999------------------------|66669999-|
|--------------------------------|--------------------------------|---------|
                                                      R=2x
|------------------------|--------------7--6h7p6--------||
|------------------------|8--7h8p7----------------8--7--||
|----88887777------------|----------8--7----------------||
|8888--------888877778888|------------------------------||
|------------------------|------------------------------||
|------------------------|------------------------------||

GTR 1 riff 3
|----------------------------888812121212--------12121212|1313131310101010-|
|--------------------10101010------------10101010--------|-----------------|
|----------------9999------------------------------------|-----------------|
|--------10101010----------------------------------------|-----------------|
|12121212------------------------------------------------|-----------------|
|--------------------------------------------------------|-----------------|

-------------------------------------------|----------------------------8888-|
12121212-----------------------------------|--------------------10101010-----|
--------1313131310101010-----------10101010|----------------9999-------------|
-----------------------121212129999--------|--------10101010-----------------|
-------------------------------------------|12121212-------------------------|
-------------------------------------------|---------------------------------|

12121212--------12121212|1313131310101010-------------------------------------|
--------10101010--------|----------------12121212-----------------------------|
------------------------|------------------------1313131310101010-------------|
------------------------|----------------------------------------121212129999-|
------------------------|-----------------------------------------------------|
------------------------|-----------------------------------------------------|
       R2x
--------||
--------||
10101010||
--------||
--------||
--------||

GTR 2 riff 3
|--------------------------------|--------------------------------|---------|
|--------------------------------|--------------------------------|---------|
|--------------------------------|--------------------------------|---------|
|--------------------------------|------------------------66669999|---------|
|77773333----333377773333----7777|88885555----555555558888--------|77773333-|
|--------5555------------5555----|--------7777--------------------|---------|
                                                       R=2x
------------------------|--------------------------------||
------------------------|--------------------------------||
------------------------|--------------------------------||
------------------------|----------------99996666--------||
----333377773333----7777|88885555----5555--------88885555||
5555------------5555----|--------7777--------------------||

2007 Ninth Kingdom
Tap to rate this tab
# A B C D E F G H I J K L M N O P Q R S T U V W X Y Z