Song name
# A B C D E F G H I J K L M N O P Q R S T U V W X Y Z

Misc Unsigned Bands - Phath - Youll Always Be Mine tab

-----------------------------------------------------------------------------
	               You'll Always Be Mine - Phath
-----------------------------------------------------------------------------
Tabbed by: JovinF
Email: jvn_famor_shino@yahoo.com

Tuning: Standard

Intro/Verse:

e|---------3-----3---------3-----3----------3-----3----------3------3-------|
B|-------3-----3---------3-----3----------3-----3----------3------3---------|
G|-----0-----0---------0-----0----------0-----0----------0------0-----------|
D|-------------------0------------------------------------------------------|
A|------------------------------------2----------------3--------------------|
E|---3----------------------------------------------------------------------|

Chorus:

e|--------3-----3--------3-----3--------3-----3--------3--------3-|
B|------3-----3--------3-----3--------3-----3--------3--------3---|
G|----0-----0--------0-----0--------0-----0--------0--------0-----|   (2x)
D|--------------------------------------------------------0-------|
A|----------------0---------------2--------------3----------------|
E|--3-------------------------------------------------------------|

** pretty sure, its 90% accurate.. learned it by ear though so expect some 
is my version..hope ya'll like it..peace out ^^
Tap to rate this tab
 
# A B C D E F G H I J K L M N O P Q R S T U V W X Y Z